Bear? No Bear!

(/) Slide Up  (\) Slide Down  (h) Hammer On  (p) Pull Off  (b) Bend (r) Release (v) Vibrato


E|-------------------------------------------------------------
B|-------------------------------------------------------------
G|-------------------------------------------------------------
D|--------------------------0-0-0-------------------------3-2-1
A|--------------------------0-1-1-------------------------3-2-1
E|--000-000-000-000-000-000-1-0-0-000-000-000-000-000-000-3-2-1 (Repeat one more time)

(Here I will do the triplets again right before the chorus)

E|---------------------------------------
B|---------------------------------------
G|---------------------------------------
D|--0--0-3-0---0--0-3-0---0--0-3-0--3-2-1
A|--0--0-3-0---0--0-3-0---0--0-3-0--3-2-1
E|--0--0-3-0---0--0-3-0---0--0-3-0--3-2-1 (Repeat three more times)



E|-------------------------------------------------------------
B|-------------------------------------------------------------
G|-------------------------------------------------------------
D|--------------------------0-0-0-------------------------3-2-1
A|--------------------------0-1-1-------------------------3-2-1
E|--000-000-000-000-000-000-1-0-0-000-000-000-000-000-000-3-2-1 (Repeat one more time)




E|---------------------------------------
B|---------------------------------------
G|---------------------------------------
D|--0--0-3-0---0--0-3-0---0--0-3-0--3-2-1
A|--0--0-3-0---0--0-3-0---0--0-3-0--3-2-1
E|--0--0-3-0---0--0-3-0---0--0-3-0--3-2-1 (Repeat three more times)


E|--------------------------------------------------
B|--------------------------------------------------
G|--------------------------------------------------
D|--0-0-0-0-----0-0-0-0-----0-0-0-0-----0-0-0-0-----
A|--0-0-0-0-----0-0-0-0-----0-0-0-0-----0-0-0-0-----
E|--0-0-0-0-----0-0-0-0-----0-0-0-0-----0-0-0-0----- (Repeat three more times)
Guitar Tab Creator is intended to store guitar tab created through the tool. It currently does not support in-line text editing. Any text you place in here will be lost. If you need to comment on your tab, please use the "Tab Notes" section located below.