Tidals

(/) Slide Up  (\) Slide Down  (h) Hammer On  (p) Pull Off  (b) Bend (r) Release (v) Vibrato
Intro
D|---------|-------------|-------------|----------|------------|---------|---------|-
A|---------|-------------|-------------|----------|------------|---------|---------|-
F|-7-7-7-7-|-14-14-14-14-|-11-11-11-11-|-11\9-9-9-|-9/11-11-11-|-6-6-6-6-|-7-7-7-7-|-
C|---------|-------------|-------------|----------|------------|---------|---------|-
G|-5-5-5-5-|-12-12-12-12-|-9--9--9--9--|-9--7-7-7-|-7-9--9--9--|-4-4-4-4-|-5-5-5-5-|-
C|---------|-------------|-------------|----------|------------|---------|---------|-



D|---------|-------------|-------------|----------|------------|-------------|----
A|---------|-------------|-------------|----------|------------|-------------|----
F|-7-7-7-7-|-14-14-14-14-|-11-11-11-11-|-11\9-9-9-|-9/11-11-11-|-18-18-18-18-|-19-
C|---------|-------------|-------------|----------|------------|-------------|----
G|-5-5-5-5-|-12-12-12-12-|-9--9--9--9--|-9--7-7-7-|-7-9--9--9--|-16-16-16-16-|-17-
C|---------|-------------|-------------|----------|------------|-------------|----


Verse:
"If I was just to say one last thing to you..."
D|------------|------------|----------------|-------------|-------------------
A|------------|------------|----------------|-------------|-------------------
F|-7-7--7-7-7-|-7/9--9-9-9-|-9/11--11-11-11-|-11\9--9-9-9-|-7-x-x-x-x-14-14---
C|------------|------------|----------------|-------------|-------------------
G|-5-5--5-5-5-|-5-7--7-7-7-|-7-9---9--9--9--|-9--7--7-7-7-|-5-x-x-x-x-12-12---
C|------------|------------|----------------|-------------|-------------------


"All I am is me..."
D|-------------|-------------------------|---------------------------
A|-------------|-------------------------|---------------------------
F|-9-11-12-9---|-11-11-11-11-12-11-9-7/9-|-11-11-11-11-12-14-16-11\9-
C|-------------|-------------------------|---------------------------
G|-7-9--10-7---|-9--9--9--9--10-9--7-5-7-|-9--9--9--9--10-12-14-9--7-
C|-------------|-------------------------|---------------------------


"we could try and make this easier..."
D|-------------|-------------|-------
A|-------------|-------------|-------
F|--7/9----11--|--7/9----11--|--6/7--
C|-------------|-------------|-------
G|--5-7----9---|--5-7----9---|--4-5--
C|-------------|-------------|-------

Bridge:
"To these eyes..."
D|---------------------------|---------------------------|--------------------------
A|---------------------------|---------------------------|--------------------------
F|-7-7-14-14--7--/11-11-9-11-|-7-7-14-14--7--/11-11-9-11-|-7-7-14-14--7--/11-11-9-9-
C|---------------------------|---------------------------|--------------------------
G|-5-5-12-12--5---9--9--7-9--|-5-5-12-12--5---9--9--7-9--|-5-5-12-12--5---9--9--7-7-
C|---------------------------|---------------------------|--------------------------



D|------------------------------
A|------------------------------
F|-11-----9-----7-----6-----6/7-
C|------------------------------
G|-9--9-9-7-7-7-5-5-5-4-4-4-4-5-
C|------------------------------

Repeat verse and bridge as above then into..

Middle (repeat x2):
"That's me over there behind a..."
D|------------------------------|------------------------------
A|------------------------------|------------------------------
F|-11-11--11-11--9-11-12-11-9-7-|-11-11--11-11--9-11-12-11-9-7-
C|------------------------------|------------------------------
G|-9--9---9--9---7-9--10-9--7-5-|-9--9---9--9---7-9--10-9--7-5-
C|------------------------------|------------------------------



D|-----------------------------|--------------------------------
A|-----------------------------|--------------------------------
F|-11-11--11-11-9-11-12-11-9-7-|-11-11-11-9-9-9-7-7-7-6-6-6-6/7-
C|-----------------------------|--------------------------------
G|-9--9---9--9--7-9--10-9--7-5-|-9--9--9--7-7-7-5-5-5-4-4-4-4-5-
C|-----------------------------|--------------------------------

Instrumental (chorus effect):
"Whoooaahhh"
D|-3--------5---3-------|-0------0---|-------0-----|-3-------5p3---5p3---3-------|-
A|-3------3---3---3-----|-3--------3-|-----3---3---|-3-----3-----3-----3---3-----|-
F|-0----------------0---|-2----------|---2-------2-|-0-----------------------0---|-
C|-0------------------0-|-0----------|-------------|-0-------------------------0-|-
G|----------------------|-2----------|-------------|-----------------------------|-
C|-5--------------------|------------|-4-----------|-5---------------------------|-



D|-0-------0---|-------0-----
A|-3-----3---3-|-----3---3---
F|-2-----------|---2-------2-
C|-0-----------|-------------
G|-2-----------|-------------
C|-------------|-4-----------



D|-12-12--9--9---10-10--9--9---10--9--|-12-12--9--9---10-10--9--9---10--9--
A|-10-10--10-10--10-10--10-10--10--10-|-10-10--10-10--10-10--10-10--10--10-
F|------------------------------------|------------------------------------
C|------------------------------------|------------------------------------
G|------------------------------------|------------------------------------
C|------------------------------------|------------------------------------



D|-12-12--9--9---10-10--9--9---10--9--|-10p9---------10p9---------10p9----
A|-10-10--10-10--10-10--10-10--10--10-|------10-----------10-----------10-
F|------------------------------------|-----------------------------------
C|------------------------------------|---------12-----------12-----------
G|------------------------------------|-----------------------------------
C|------------------------------------|-----------------------------------



D|-14--14--14-14-14-14-|-14-14-14-14-14-15-15-15-|-14--14--14-14-14-14-|-14-14-14-14-14-17-17-17-
A|-15--15--15-15-15-15-|-15-15-15-15-15-15-15-15-|-15--15--15-15-15-15-|-15-15-15-15-15-15-15-15-
F|-14--14--14-14-14-14-|-14-14-14-14-14-14-14-14-|-14--14--14-14-14-14-|-14-14-14-14-14-14-14-14-
C|---------------------|-------------------------|---------------------|-------------------------
G|---------------------|-------------------------|---------------------|-------------------------
C|---------------------|-------------------------|---------------------|-------------------------



D|-14--14--14-14-14-14-|-12-12-12-12-12-12-12-12-|-14--14--14-14-14-14-|-17-17-17-17-17-17-17-17-
A|-15--15--15-15-15-15-|-15-15-15-15-15-15-15-15-|-15--15--15-15-15-15-|-15-15-15-15-15-15-15-15-
F|-14--14--14-14-14-14-|-14-14-14-14-14-14-14-14-|-14--14--14-14-14-14-|-14-14-14-14-14-14-14-14-
C|---------------------|-------------------------|---------------------|-------------------------
G|---------------------|-------------------------|---------------------|-------------------------
C|---------------------|-------------------------|---------------------|-------------------------


repeat this part x8
D|------------------|---------------
A|------------------|-----7-8-7-----
F|-7---14---7-7-7-7-|-7-9-------9-7-
C|------------------|---------------
G|-5---12---5-5-5-5-|---------------
C|------------------|---------------

Outro: all harmonics. This isn't on recording but you will probably hear what it does. If not give me a shout

D|-----12-|-----12----|-----12--------12-
A|---7----|---7----12-|---7----12---7----
F|-7------|-7---------|-7---------7------
C|--------|-----------|------------------
G|--------|-----------|------------------
C|--------|-----------|------------------
http://www.guitartabcreator.com
Guitar Tab Creator is intended to store guitar tab created through the tool. It currently does not support in-line text editing. Any text you place in here will be lost. If you need to comment on your tab, please use the "Tab Notes" section located below.