Sins

(/) Slide Up  (\) Slide Down  (h) Hammer On  (p) Pull Off  (b) Bend (r) Release (v) Vibrato

Intro
D|---------------------------------------------|---------------------------------------------
A|---------------------------------------------|---------------------------------------------
F|---7---7---7-----6\4---4---4\2---2-------2p0-|---0---0---2-------2/4---4---4/6---6-------6/
C|---0---0---0-----0-----0---0-----0-------0-0-|---0---0---0-------0-----0---0-----0-------0-
G|---------------------------------------------|---------------------------------------------
D|-7---7---7---5-5-----3---3-----2---2-2-2-----|-0---0---2---2-2-2-----3---3-----5---5-5-5---


Intro cont.. Octaves once drums come in with toms repeat again with beat
D|---------|---------|---------|---------|---------|---------|---------|---------
A|---------|---------|---------|---------|---------|---------|---------|---------
F|-7-7-7-7-|-7-7-7-7-|-7-7-7-7-|-7-7-7-7-|-7-7-7-7-|-7-7-7-7/|-9-9-9-9-|-9-9-9-9-
C|---------|---------|---------|---------|---------|---------|---------|---------
G|-5-5-5-5-|-5-5-5-5-|-5-5-5-5-|-5-5-5-5-|-5-5-5-5-|-5-5-5-5-|-7-7-7-7-|-7-7-7-7-
D|---------|---------|---------|---------|---------|---------|---------|---------



D|---------|---------|---------|---------|-------------|-------------|-------------
A|---------|---------|---------|---------|-------------|-------------|-------------
F|-7-7-7-7-|-7-7-7-7-|-7-7-7-7-|-9-9-9-9-|-11-11-11-11-|-11-11-11-11-|-16-16-16-16-
C|---------|---------|---------|---------|-------------|-------------|-------------
G|-5-5-5-5-|-5-5-5-5-|-5-5-5-5-|-7-7-7-7-|-9--9--9--9--|-9--9--9--9--|-14-14-14-14-
D|---------|---------|---------|---------|-------------|-------------|-------------



D|-------------|-------------|-------
A|-------------|-------------|-------
F|-16-16-16-16-|-16-16-16-16-|-14-14-
C|-------------|-------------|-------
G|-14-14-14-14-|-14-14-14-14-|-12-12-
D|-------------|-------------|-------


Verse...These are the chords in sequence. Takes ages to do the strumming but you will hear it.
"They say that dogs can smell..."
D|-------------------
A|-------------------
F|-7-6-4-2-0-2-4-6-7-
C|-0-0-0-0-0-0-0-0-0-
G|-------------------
D|-7-5-3-2-0-2-3-5-7-


Chorus...Same as the verse. These are the chords but listen for strumming.
"Oh hunny bee..."
D|------------|--------------
A|------------|--------------
F|-7-9-11-4-2-|-7-9-11-16-14-
C|-0-0-0--0-0-|-0-0-0--0--0--
G|------------|--------------
D|-7-9-10-3-2-|-7-9-10-15-14-

Repeat verse (listen for slightly different strumming near end of verse - same chords)

Repear chorus

Instrumental (delay effect)
D|-------------------------------------------------------------------------------
A|-12-12-12-12-12-12-12-12-12-12-12-12-10-10-10-10-5-5-5-5-5-7-7-7-7-7-7-5-5-5-5-
F|-------------------------------------------------------------------------------
C|-------------------------------------------------------------------------------
G|-------------------------------------------------------------------------------
D|-------------------------------------------------------------------------------



D|-19-19-19-19-19-19-19-19-19-19-19-19-17-17-17-17-12-12-12-12-12-12-14-14-14-14-14-14-12-12---
A|---------------------------------------------------------------------------------------------
F|---------------------------------------------------------------------------------------------
C|---------------------------------------------------------------------------------------------
G|---------------------------------------------------------------------------------------------
D|---------------------------------------------------------------------------------------------

Intro repeat once.

Chorus repeated again.

Outro: (again just chord sequence listen from strumming)
"You're beautiful..."
D|-----------|------------
A|-----------|------------
F|-2-2-2-2-2-|-4-6-7-9-11-
C|-0-0-0-0-0-|-0-0-0-0-0--
G|-----------|------------
D|-2-2-2-2-2-|-3-5-7-9-10-


Outro cont...(slight delay or chorus to bring it out)
D|-----------------------------
A|------10----------10---------
F|-9h11----11--9h11----11-9-11-
C|-----------------------------
G|-----------------------------
D|-----------------------------

Repeat intro riff for ending.
http://www.guitartabcreator.com
Guitar Tab Creator is intended to store guitar tab created through the tool. It currently does not support in-line text editing. Any text you place in here will be lost. If you need to comment on your tab, please use the "Tab Notes" section located below.