I'll Help You Was the Blood From Your Hands If You Help Me Pull This Knife From My Back

(/) Slide Up  (\) Slide Down  (h) Hammer On  (p) Pull Off  (b) Bend (r) Release (v) Vibrato

Intro: Listen to song for strumming. Repeated x2
D|-------------------------------------|----------------------------
A|-------------------------------------|----------------------------
F|-14-14-14--11-11-11-11\9--9-9-9\7--7-|-14-14-14--11-11-11-9/11--9-
C|-------------------------------------|----------------------------
G|-12-12-12--9--9--9--9--7--7-7-7-5--5-|-12-12-12--9--9--9--7-9---7-
C|-------------------------------------|----------------------------



D|---------------------------------------------------------------
A|---------------------------------------------------------------
F|-14-14-14-14--11-11-11-11\9--9-9-9\7--7--9--11-11-11-7/9-11--7-
C|---------------------------------------------------------------
G|-12-12-12-12--9--9--9--9--7--7-7-7-5--5--7--9--9--9--5-7/9---5-
C|---------------------------------------------------------------


Intro continued through to verse. Repeat x2
"If it's loyalty your after you should get a dog"
D|--------------------------------------------------------|-------------------------------
A|--------------------------------------------------------|-------------------------------
F|-----14-14-----14-14-----14-14---14-----14-14---14-12---|-----14-14-----14-14-----14-14-
C|--------------------------------------------------------|-------------------------------
G|-----12-12-----12-12-----12-12---12-----12-12---12-10---|-----12-12-----12-12-----12-12-
C|-0-0-------0-0-------0-0-------0----0-0-------0---------|-0-0-------0-0-------0-0-------



D|-----------------------------
A|-----------------------------
F|---14--19-19-19-18-18/19--14-
C|-----------------------------
G|---12--17-17-17-16-16-17--12-
C|-0---------------------------


Bridge:
"Cos I don't know if we can love again.."
D|--------------------|---------------------------------|----------------------|-
A|--------------------|---------------------------------|----------------------|-
F|-12-----11-11-11/12-|---------------------------7-----|----12----11-11-11/12-|-
C|--------------------|--------------4h5------7h9---9-7-|----------------------|-
G|-10-----9--9--9--10-|-----5h7-------------------------|----10----9--9--9--10-|-
C|--------------------|-0-0------0-0------0-0-----------|----------------------|-



D|-----------------------------
A|-----------------------------
F|---------------------------7\
C|--------------4h5------7h9---
G|-----5h7---------------------
C|-0-0------0-0------0-0-------


Chorus: Repeat x2
"You've been wasting your time.."
D|-----------------|-----------------|---------------|----------------|---------------
A|-----------------|-----------------|---------------|----------------|-----10--8-8p7-
F|-----------------|-----------------|---------------|----------------|-7h9-----------
C|-0-0-0-0-0-0-0-0-|-0-7-7-7-7-7-7-7-|-7-5-5-5-5-5-5-|-7p0-0-9p0-0-11-|---------------
G|-----------------|-----------------|---------------|----------------|---------------
C|-----------------|-----------------|---------------|----------------|---------------



D|----------------|-----------------------------
A|-----10--8-8p7--|-8p7--8-7--8-7--8-7--8p7-----
F|-7h9------------|-9-7--9p7--9p7--9p7------7---
C|----------------|---------------------------0-
G|----------------|-----------------------------
D|----------------|-----------------------------

Repeat intro riff straight after chorus

Verse 2:
"The Blood on your hands won't wash off to easily"
D|-------------------------------------------------------|-------------------------------
A|-------------------------------------------------------|-------------------------------
F|-----14-14-----14-14-----14-14---14-----14-14---14-12--|-----14-14-----14-14-----14-14-
C|-------------------------------------------------------|-------------------------------
G|-----12-12-----12-12-----12-12---12-----12-12---12-10--|-----12-12-----12-12-----12-12-
C|-0-0-------0-0-------0-0-------0----0-0-------0--------|-0-0-------0-0-------0-0-------



D|------------------------------
A|------------------------------
F|---14---19-19-19-18-18/19--21-
C|------------------------------
G|---12---17-17-17-16-16-17--19-
C|-0----------------------------

Verse 2 cont:
"All the morals that we lived by in the past are dead"
D|------------------------------------------|---------------------------------------------
A|------------------------------------------|---------------------------------------------
F|-----14---19---14---19-------14---19-18---|-----14---19---21---18-19-19-19-18-18-19--14-
C|------------------------------------------|---------------------------------------------
G|-----12---17---12---17-------12---17-16---|-----12---17---19---16-17-17-17-16-16-17--12-
C|-0-0-------------------0-0----------------|-0-0-----------------------------------------



D|--
A|--
F|--
C|--
G|--
C|--

Chorus as above but on 2nd repeat do as below into middle:
"You've been wasting your time"
D|-----------------|-----------------|-----------------|----------------|---------------
A|-----------------|-----------------|-----------------|----------------|-----10--8-8p7-
F|-----------------|-----------------|-----------------|----------------|-7h9-----------
C|-0-0-0-0-0-0-0-0-|-0-7-7-7-7-7-7-7-|-7-5-5-5-5-5-5-5-|-7p0-0-9p0-0-11-|---------------
G|-----------------|-----------------|-----------------|----------------|---------------
C|-----------------|-----------------|-----------------|----------------|---------------



D|---------------|------------------------------------------------7----------
A|-----10--8-8p7-|-8p7--8p7--8p7--8p7--8p7--8p7--8p7--8p7----10------10---10-
F|-7h9-----------|-9-7--9-7--9-7--9-7--9-7--9-7--9-7--9-7--7----7-------7----
C|---------------|-----------------------------------------------------------
G|---------------|-----------------------------------------------------------
C|---------------|-----------------------------------------------------------


Middle repeated
"Anymore"
D|--------------------------|------10-10-------9-9-----9/10\9-
A|-7-7--7-7--8-8--8-8--7--8-|------7--7-----------------------
F|-7-7--7-7--7-7--7-7--7--7-|------------------9-9-----9------
C|--------------------------|-9-9--9--9---7-7--7-7-7-7-7------
G|--------------------------|---------------------------------
C|--------------------------|---------------------------------


End Chorus repeat x2:
"Concentrate, on just only doing well for yourself"
D|----------|--------------|----------------------|-----------------------------
A|----------|--------------|----------------------|---------------------8p7-----
F|-7-7-7--7-|-11-11-11--11-|-7/9-11--9\7--9/11-9--|-9\7--9\7--9\7--9\7------7---
C|----------|--------------|----------------------|-----------------------------
G|-5-5-5--5-|-9--9--9---9--|-5-7/9---7-5--7-9--7--|-7-5--7-5--7-5--7-5----------
C|----------|--------------|----------------------|-----------------------------


"It's the worst thing anyone can do"
D|----------|--------------|----------------------------------------------
A|----------|--------------|-15---------15---------15---------15----------
F|-7-7-7--7-|-11-11-11--11-|-----14---------14---------14---------14------
C|----------|--------------|--------12---------12---------12---------12---
G|-5-5-5--5-|-9--9--9---9--|----------------------------------------------
C|----------|--------------|----------------------------------------------



D|-------------------------
A|-------------------------
F|-9\7--9\7--9\7--9\7------
C|-------------------------
G|-7-5--7-5--7-5--7-5------
C|-------------------------


Outro:
Kyle does this but and you come in hers --->
D|-------------|-------------|-------------|--------------|-------------|-----------
A|-------------|-------------|-------------|--------------|-------------|-----------
F|-------7-7-7-|-------9-9-9-|-------11-11-|-18/19-18--14-|-------7-7-7-|-------9---
C|-5-5-5-------|-7-7-7-------|-9-9-9-------|--------------|-5-5-5-------|-7-7-7-----
G|-5-5-5-5-5-5-|-7-7-7-7-7-7-|-9-9-9-9--9--|-16-17\16--12-|-5-5-5-5-5-5-|-7-7-7-7b8-
C|-5-5-5-------|-7-7-7-------|-9-9-9-------|--------------|-5-5-5-------|-7-7-7-----


"Your wastin your time and in turn..."
D|-------------------|-------------|-------------|----------------|--------------
A|-------------------|-------------|-------------|----------------|--------------
F|-------------------|-------7-7-7-|-------9-9-9-|-------11-11-11-|-18/19--21-21-
C|-0--0--0--0--0--12\|-5-5-5-------|-7-7-7-------|-9-9-9----------|--------------
G|-0--0--0--0--0--12-|-5-5-5-5-5-5-|-7-7-7-7-7-7-|-9-9-9-9--9--9--|-16-17--19-19-
C|-0--0--0--0--0--12-|-5-5-5-------|-7-7-7-------|-9-9-9----------|--------------



D|-------------|-----------|------------------------------------------------------------
A|-------------|-----------|------------------------------------------------------------
F|-------7-7-7-|-------9---|----------------7--/14--14--14--14--14--14--/19--19--19--19-
C|-5-5-5-------|-7-7-7-----|-0--0--0--0--0----------------------------------------------
G|-5-5-5-5-5-5-|-7-7-7-7b8-|-0--0--0--0--0--5---12--12--12--12--12--12---17--17--17--17-
C|-5-5-5-------|-7-7-7-----|-0--0--0--0--0--0---0---0---0---0---0---0----0---0---0---0--



D|---------------------------x--
A|---------------------------x--
F|-19--19--------------------x--
C|---------------------0--0--x--
G|-17--17--------------0--0--x--
C|-0---0---------------0--0--x-- last note marked with x is a sweep of all strings above the bridge(not sure of technical term)
http://www.guitartabcreator.com
Guitar Tab Creator is intended to store guitar tab created through the tool. It currently does not support in-line text editing. Any text you place in here will be lost. If you need to comment on your tab, please use the "Tab Notes" section located below.