Elephant

(/) Slide Up  (\) Slide Down  (h) Hammer On  (p) Pull Off  (b) Bend (r) Release (v) Vibrato
Intro: (repeat x2)
D|---------------------------------|---------------------------------
A|---0-----0-----0---0-----0-----0-|---0-----0-----0---0-----0-----0-
F|-----0-----0---------0-----0-----|-----0-----0---------0-----0-----
C|---------------------------------|---------------------------------
G|---------------------------------|-4-----4-----4---4-----4-----4---
D|-0-----0-----0---0-----0-----0---|---------------------------------



D|---------------------------------|-------------------------------
A|---0-----0-----0---0-----0-----0-|---0-----0-------0-----0-----0-
F|-----0-----0---------0-----0-----|-----0-------------0-----0-----
C|---------------------------------|-------------------------------
G|-3-----3-----3---3-----3-----3---|-0-----0---0-2-3-----3-----3---
D|---------------------------------|-------------------------------

Verse: (repeat x2) listen for picking.
"Say a change if coming for the better now..."
D|-----------|-----------|-----------|--------------------
A|---0-------|---0-------|---0-------|---0---------0------
F|-----0-----|-----0-----|-----0-----|-----0---------0----
C|-----------|-----------|-----------|--------------------
G|-----------|-4---------|-3---------|-0-----0-2-3--------
D|-0---------|-----------|-----------|--------------------


Verse cont... (repeat x2)
D|-----8-----8-----|-----5-----5-----|----------7p0-----0-|---------10-----10-
A|---8-----8-----8-|---3-----3-----3-|----5---5-------5---|---7---7------7----
F|-5-----5-----5---|-5-----5-----5---|-7----7-------7-----|-9---9------9------
C|-----------------|-----------------|--------------------|-------------------
G|-----------------|-----------------|--------------------|-------------------
D|-----------------|-----------------|--------------------|-------------------



D|-----8-----8-----|-----5-----5-----|-------------------|-------------
A|---8-----8-----8-|---3-----3-----3-|----5---5-7-5---5--|-5---5-7-5---
F|-5-----5-----5---|-5-----5-----5---|-7----7-------7----|---7-------7-
C|-----------------|-----------------|-------------------|-------------
G|-----------------|-----------------|-------------------|-------------
D|-----------------|-----------------|-------------------|-------------


Link...
D|-------------------|--------------------
A|---8---8-----------|---8---8--------8-8-
F|---7---7-----------|---7---7--------7-7-
C|-0-0---0-----------|-0-0---0--------0-0-
G|-------------------|--------------------
D|-7-----8-----------|-7-----8--------8-8-


Verse cont... (repeat x2) DELAY

D|-----------5---5-|-----------5---5-|-----------5---5-|-3-3-3-2-2-2-----
A|-3-3-3-5-5---5---|-3-3-3-5-5---5---|-3-3-3-5-5---5---|-------------3-3-
F|-----------------|-----------------|-----------------|-----------------
C|-----------------|-----------------|-----------------|-----------------
G|-----------------|-----------------|-----------------|-----------------
D|-----------------|-----------------|-----------------|-----------------

Verse cont... (repeat x2) DELAY

D|----------------17----17-|----------------17----17-|----------------17----17-|---
A|-15-15-15/17-17----17----|-15-15-15/17-17----17----|-15-15-15/17-17----17----|---
F|-------------------------|-------------------------|-------------------------|---
C|-------------------------|-------------------------|-------------------------|---
G|-------------------------|-------------------------|-------------------------|---
D|-------------------------|-------------------------|-------------------------|---



D|-15-15-15-14-14-14----
A|-------------------15-
F|----------------------
C|----------------------
G|----------------------
D|----------------------


Another meolodic verse like bit (I'm running out of names for things

D|-------------------------|------------------------|---------------------------------
A|-------------------------|------------------------|---------------------------------
F|-12-12-12-12-12-12-12-12-|-11-11-11-12\11-9-9-9-9-|---------------------------------
C|-------------------------|------------------------|---------------------------------
G|-10-10-10-10-10-10-10-10-|-9--9--9--10-9--7-7-7-7-|-7-7-7-7-7-7-7-7-7-7-7-7-7-7-7-7-
D|-------------------------|------------------------|-9-9-9-9-9-9-9-9-9-9-9-9-9-9-9-9-



D|-------------------------------------|-------------------------------
A|-------------------------------------|---0-----0-------0-----0-----0-
F|-------------------------------------|-----0-------------0-----0-----
C|-------------------------------------|-------------------------------
G|-7-7-7-7-7-7-7-7-9-9-9-9-10-10-10-10-|-0-----0---2---3-----3-----3---
D|-8-8-8-8-8-8-8-8-8-8-8-8-8--8--8--8--|-------------------------------



D|----------------------------------------------------|-----------------------------------
A|----------------------------------------------------|-----------------------------------
F|-12-12-12-12-12-12-12-12-14-14-14-16\14-16-16-16-16-|-----------------------------------
C|----------------------------------------------------|-----------------------------------
G|-10-10-10-10-10-10-10-10-12-12-12-14-12/14-14-14-14-|-7-7-7-7-7-7-7-7-7-7-7-7-7-7-7-7---
D|----------------------------------------------------|-9-9-9-9-9-9-9-9-9-9-9-9-9-9-9-9---



D|-------------------------------------|-------------------------------
A|-------------------------------------|---0-----0-------0-----0-----0-
F|-------------------------------------|-----0-------------0-----0-----
C|-------------------------------------|-------------------------------
G|-7-7-7-7-7-7-7-7-9-9-9-9-10-10-10-10-|-0-----0---2---3-----3-----3---
D|-8-8-8-8-8-8-8-8-8-8-8-8-8--8--8--8--|------------------------------

Another different bit.... listen for strumming (Repeat x2)

D|----------------------|----------------------|------------------------
A|----------------------|----------------------|------------------------
F|-5--5--5--5-5-5-5/7-7-|----------------------|-9--9--9--9-9-9-9/11-11-
C|----------------------|-7--7--7--7-7-7-7/9-9-|------------------------
G|-3--3--3--3-3-3-3-5-5-|----------------------|-7--7--7--7-7-7-7-9--9--
D|----------------------|-5--5--5--5-5-5-5-7-7-|------------------------



D|---------------------
A|---------------------
F|-4--4--4-4-4-4-4/5-5-
C|---------------------
G|-2--2--2-2-2-2-2-3-3-
D|---------------------

Chorus... (Repeat x2) listen for strumming

D|-3-------|-----------------------------------------|-3-3---------------3------
A|-3-------|-------------10--------------------10----|-3-3-12-------15---3------
F|-0-------|----12----12----12----12--12----12----12-|-0-0----12---------0------
C|-0-------|-12----12----------12--------12----------|-0-0-------12------0------
G|---------|-----------------------------------------|-3-3---------------3------
D|-3-------|-----------------------------------------|---3----------------------



D|-3-----|-0-0---------------|-3-3-2-0-3-2-0-|-3-----|---3-------------3-
A|-3-----|-3-3---------------|-3-------------|-3-----|-3-3-12-------15-3-
F|-0-----|-2-2---8-8-8-8-8-8-|-0-------------|-0-----|-0-0----12---------
C|-2-----|-0-0---------------|-2-------------|-0-----|-----------12------
G|-2-----|-------6-6-6-6-6-6-|-2-------------|-------|-3-3-------------3-
D|-0-----|-------------------|-0-------------|-3-----|-------------------



D|-3-----|-0-0---------------
A|-3-----|-3-3---------------
F|-0-----|-2-2---8-8-8-8-8-8-
C|-2-----|-0-0---------------
G|-2-----|-------6-6-6-6-6-6-
D|-0-----|-------------------

Outro beginning (still singing) repeat x4

D|-5-3-5-3-5-3-2-------2-|-3-2----|-3-----3-----5-
A|-3-3-3-3-3-3---3---3---|-3-3----|-3-3/5---5/7---
F|-0-0-0-0-0-0-----4-----|-0-0----|-0-------------
C|-0-0-0-0-0-0-----------|-2-2----|---------------
G|-----------------------|-2-2----|-3-------------
D|-3-3-3-3-3-3-----------|-0-0----|---------------

Listen for where this comes in. Big delay.

D|-------------------------------------------------------------------------
A|-13-12-------------13-12-------------13-12-------------------------------
F|-------14-12-------------14-12-------------14-12-------14-12-14-12-14-12-
C|-------------14-12-------------14-12-------------14-12-------------------
G|-------------------------------------------------------------------------
D|-------------------------------------------------------------------------

Outro continued... rapid notes to end with delay

D|-------------------------------------------------------------------------------------------
A|-------------------------------------------------------------------------17-17-17-17-17-17-
F|-14-14-14-14-14-14-16-16-16-16-16-16-17-17-17-17-17-17-19-19-19-19-19-19-------------------
C|-------------------------------------------------------------------------------------------
G|-------------------------------------------------------------------------------------------
D|-------------------------------------------------------------------------------------------



D|-------------------15-15-15-15-15-15-17-17-17-17-17-17-19-19-19-19-19-19-19-19-19---
A|-19-19-19-19-19-19------------------------------------------------------------------
F|------------------------------------------------------------------------------------
C|------------------------------------------------------------------------------------
G|------------------------------------------------------------------------------------
D|------------------------------------------------------------------------------------



D|-------------------19-19-19-19-19-19-19-19-19-19-19-19-19-19-19-19-19-19-------------------
A|-17-17-17-17-17-17-------------------------------------------------------17-17-17-17-17-17-
F|-------------------------------------------------------------------------------------------
C|-------------------------------------------------------------------------------------------
G|-------------------------------------------------------------------------------------------
D|-------------------------------------------------------------------------------------------



D|-15-17-19-15-17-19-15-17-19-15-17-19-15-17-19-------------------------
A|----------------------------------------------17-17-17-17-17-17-17-17-
F|----------------------------------------------------------------------
C|----------------------------------------------------------------------
G|----------------------------------------------------------------------
D|----------------------------------------------------------------------
http://www.guitartabcreator.com
Guitar Tab Creator is intended to store guitar tab created through the tool. It currently does not support in-line text editing. Any text you place in here will be lost. If you need to comment on your tab, please use the "Tab Notes" section located below.