Dog In A Leopard Suit

(/) Slide Up  (\) Slide Down  (h) Hammer On  (p) Pull Off  (b) Bend (r) Release (v) Vibrato
Intro
D|------------------|-|-----------------------------------------
A|------------------|-|-----------------------------------------
F|-7--14--11--9--11-|-|-12-12-12-11-11-11-11-9-9-9-9-9/11-11-11-
C|------------------|-|-----------------------------------------
G|-5--12--9---7--9--|-|-10-10-10-9--9--9--9--7-7-7-7-7-9--9--9--
C|------------------|-|-----------------------------------------



D|------------------|--------------------------------------------
A|------------------|--------------------------------------------
F|-7--14--11--9--11-|-12-12-12-12-12\11-11-11-11\9-9-9-9\7-7/9-7-
C|------------------|--------------------------------------------
G|-5--12--9---7--9--|-10-10-10-10-10-9--9--9--9--7-7-7-7-5-5-7-5-
C|------------------|--------------------------------------------


Verse: (Repeat x2)
"I promise not to let this whole...."
D|----------------------------------------|--------------------------------
A|---------7-----------------7-----10-8-7-|---------7-----------------7----
F|-----7-9---9-7---------7-9---9-7--------|-----7-9---9-7---------7-9---9--
C|-7p9-----------9-7-7p9------------------|-7h9-----------9-7-7h9----------
G|----------------------------------------|--------------------------------
C|----------------------------------------|--------------------------------



D|-----------------------------
A|-7---------------------------
F|---9-7-9-7-----------7-9-7---
C|-----------9-7---7h9-------9-
G|-----------------------------
C|-----------------------------


Chorus: Listen for strumming.
"Is there anybody for me..."
D|---------|-------------|-----------------|----------------17-
A|-7---7-7-|-14-14-14-14-|-7-7-7-8-8-8-7-8-|-14-14-14-15-15-17-
F|-7-7-7-7-|-14-14-14-14-|-7-7-7-7-7-7-7-7-|-14-14-14-14-14-14-
C|---------|-------------|-----------------|-------------------
G|-5-5-5-5-|-12-12-12-12-|-5-5-5-5-5-5-5-5-|-12-12-12-12-12-12-
C|---------|-------------|-----------------|-------------------


"Guess what you were wrong..."
D|-------------------------------|--------------7---|----------------------------
A|-----7------------7-----10-8-7-|-10-10-10-10----7-|-----7------------7---------
F|-7h9---9-7----7h9---9-7--------|----------------7-|-7h9---9-7----7h9---9-7---7-
C|-----------9-------------------|------------------|-----------9------------9---
G|-------------------------------|------------------|----------------------------
C|-------------------------------|------------------|----------------------------



D|------------------12----12----12----
A|---7---7---7------------------------
F|-9---9---9---9-11----11----11----11-
C|------------------------------------
G|------------------------------------
C|------------------------------------

Repeat verse again.

Repeat chorus again.

Instrumental:
D|-0-|-3-|---------|-0-|-3-|---------|-0-----0-----0-|-3-----0-|---------
A|-3-|-3-|---3-2-3-|-3-|-3-|---3-2-3-|-3-3-----3-----|-3-3-----|---3-2-3-
F|-2-|-0-|---------|-2-|-0-|---------|-2---2-----2---|-0---0---|---------
C|-0-|-0-|---------|-0-|-0-|---------|-0-------------|-0-------|---------
G|-2-|---|---------|-2-|---|---------|-2-------------|---------|---------
C|---|-5-|-2-------|---|-5-|-2-------|---------------|-5-------|-2-------



D|---------------------------------|---------------------------------
A|---------------------------------|---------------------------------
F|---------------------------------|---------------------------------
C|---------------------------------|---------------------------------
G|-2-2-2-------------------4-4-4-4-|-2-2-2-------------------4-4-4-4-
C|-------4-4-4-5-5-5-2-2-2---------|-------4-4-4-5-5-5-2-2-2---------



D|------------------------------------|------------------------------------
A|------------------------------------|------------------------------------
F|-11-11-11-9-9-9-7-7-7-6-6-6-x-x-x-x-|-11-11-11-9-9-9-7-7-7-6-6-6-x-x-x-x-
C|------------------------------------|------------------------------------
G|-9--9--9--7-7-7-5-5-5-4-4-4-x-x-x-x-|-9--9--9--7-7-7-5-5-5-4-4-4-x-x-x-x-
C|------------------------------------|------------------------------------



D|------------------------------------|--------------
A|------------------------------------|--------------
F|-11-11-11-9-9-9-7-7-7-6-6-6-x-x-x-x-|-11---10----7-
C|------------------------------------|--------------
G|-9--9--9--7-7-7-5-5-5-4-4-4-x-x-x-x-|-9----8-----5-
C|------------------------------------|--------------



D|--------------|-------------|--------------|---------
A|--------------|-------------|--------------|---------
F|-11-6-7-6-4-6-|-11-6-7-9-14-|-11-6-7-6-4-6-|-11-10-7-
C|--------------|-------------|--------------|---------
G|-9--4-5-4-2-4-|-9--4-5-7-12-|-9--4-5-4-2-4-|-9--8--5-
C|--------------|-------------|--------------|---------



D|-----------------------------------------------
A|-----------------------------------------------
F|-----------------------------------------------
C|--------------7--7--------------------7--7-----
G|--5--5--5--5--------5--5--5--5--5--5-----------
C|-----------------------------------------------

Repeat Chorus x2
http://www.guitartabcreator.com
Guitar Tab Creator is intended to store guitar tab created through the tool. It currently does not support in-line text editing. Any text you place in here will be lost. If you need to comment on your tab, please use the "Tab Notes" section located below.