Crosses

(/) Slide Up  (\) Slide Down  (h) Hammer On  (p) Pull Off  (b) Bend (r) Release (v) Vibrato

Clean Intro finger picked
D|----------------------------------------------------------------------------------------------
A|----------------------------------------------------------------------------------------------
F|-------10---------------10-----------------10-------------------10-----------------10---------
C|---0--------0---0---0--------0---0----0----------0----0----0----------0----0---0--------0---0-
G|----------------------------------------------------------------------------------------------
C|-0---0----0---0---0---0----0---0---10---10----10---10---10---10----10---10---7---7----7---7---



D|--------------------------------------------------|---------------------------------------------
A|--------------------------------------------------|---------------------------------------------
F|-------10---------------10---------------10-------|-------10---------------10-------------------
C|---0--------0---0---0--------0---0---0--------0---|---0--------0---0---0--------0---0----0------
G|--------------------------------------------------|---------------------------------------------
C|-7---7----7---7---8---8----8---8---8---8----8---8-|-0---0----0---0---0---0----0---0---10---10---



D|-----------------------------------------------------------------------------------------------
A|-----------------------------------------------------------------------------------------------
F|-10-------------------10-------------------10-----------------------------------10-------10-10-
C|-------0----0----0----------0----0----0----------0----0----0----0---0---0---0--------0---0--0--
G|-----------------------------------10---10----10---10---10---10--------------------------------
C|----10---10---10---10----10---10----------------------------------7---7---8---8----8---8-8--8--


Intro cont: Guitar distorted. Repeat x2
D|----------10-------------------10----------------5-------------5-------
A|----10-------10----10----10-------10----10---5-----5---5---5-----5---5-
F|-10----10-------10----10----10-------10----5---5-----5---5---5-----5---
C|-----------------------------------------------------------------------
G|-----------------------------------------------------------------------
C|-----------------------------------------------------------------------


still intro: open is palm mute with last 3 a triplet
D|---------------------13------------13-------------5---------------5--------
A|------------15----15------15----15----15------5-------5---5---5------5---5-
F|---------------14------------14----------14\5---5-------5---5---5------5---
C|-0--0-0-0-0----------------------------------------------------------------
G|-0--0-0-0-0----------------------------------------------------------------
C|-0--0-0-0-0----------------------------------------------------------------


ring out
D|----------13---------------------13-----------------5------5-
A|----15---------15----15----15--------15----15---3------3---3-
F|-14----14---------14----14----14--------14----3---3------3-3-
C|-------------------------------------------------------------
G|-------------------------------------------------------------
C|-------------------------------------------------------------


Verse: Repeat x2
"Music is the key.." "That unlocks all the..."
D|----|----|----|-------------------|-------------------------------|----------------------
A|----|----|----|-------------------|-------------------------------|----------------------
F|-10-|-10-|-14-|-14/15-15-15-15\14-|-12-12-12-12---10--7-7-7-7--10-|-12-12-14\12--10-7--5-
C|----|----|----|-------------------|-------------------------------|----------------------
G|-8--|-8--|-12-|-12-13-13-13-13-12-|-10-10-10-10---8---5-5-5-5--8--|-10-10-12-10--8--5--3-
C|----|----|----|-------------------|-------------------------------|----------------------


Bridge:
"I've never had the guys to say.."
D|-------------------------------------------------------------------------------------
A|----------13--10------10--------------13--10----------------------13--10------10-----
F|------12----------12--------------12----------12--------------12----------12---------
C|--10--------------------------10------------------10------10-------------------------
G|-------------------------------------------------------------------------------------
C|-------------------------------------------------------------------------------------


"I never got what I wanted..."
D|--------------------------------------------------------------------------------------
A|----------13--10--------------------------13--10------10--------------13--10----------
F|------12----------12--10--------------12----------12--------------12----------12------
C|--10----------------------10------10--------------------------10------------------10--
G|--------------------------------------------------------------------------------------
C|--------------------------------------------------------------------------------------


"All I want is you...." "Now we'll do just what it takes.."
D|----------------------------------------------|-----------------------------------
A|----------13--10------------------------------|----------13--10------10-----------
F|------12------------12------------------------|------12----------12---------------
C|--10----------------------3--0----0--3--0--0--|--10-------------------------------
G|--------------------------3--0----0--3--0--0--|-----------------------------------
C|--------------------------3--0----0--3--0--0--|-----------------------------------



D|--------------------------------------------------------------------------------------
A|----------13--10----------------------13--10------10--------------13--10--------------
F|------12----------12--------------12----------12--------------12----------12--10------
C|--10------------------10------10--------------------------10----------------------10--
G|--------------------------------------------------------------------------------------
C|--------------------------------------------------------------------------------------


"Dissapointment..." "Music in the way..." hold 10 and bend 12
D|-----------------------------------------------------------------------------
A|----------13--10------10--------------13--10------10---------10--10--10--10--
F|------12----------12--------------12----------12------12b14--14--14--14--14--
C|--10--------------------------10---------------------------------------------
G|-----------------------------------------------------------------------------
C|-----------------------------------------------------------------------------


Chorus:
"Crosses..." "If this isn't what you're looking..."
D|-------------------------------------------------------------|-----------------------
A|-------------------------------------------------------------|-----------------------
F|-14\10---12-12-12-12\10-10--7-15-14--14-14\12-12-12\10-10-10-|-10--9--12--10--14--12-
C|-------------------------------------------------------------|-----------------------
G|-12-8---/10-10-10-10-8--8---5-13-12--12-12-10-10-10-8--8--8--|-8---7--10--8---12--10-
C|-------------------------------------------------------------|-----------------------


"Take the lyrics to your..." "It's only gonna hurt your.."
D|--------|--------------------------------------------------------------|-------------
A|--------|--------------------------------------------------------------|-------------
F|-15--14-|-14\10----12-12-12-12\10-10--7-15-14--14-14\12-12-12\10-10-10-|-10--9--12---
C|--------|--------------------------------------------------------------|-------------
G|-13--12-|-12-8----/10-10-10-10-8--8---5-13-12--12-12-10-10-10-8--8--8--|-8---7--10---
C|--------|--------------------------------------------------------------|-------------


"Sorry it's the best I can do..."
D|-----------------------------
A|-----------------------------
F|-10--14-12-14-15-17-15-17-19-
C|-----------------------------
G|-8---12-10-12-13-15-13-15-17-
C|-----------------------------

Repeat verse, bridge and chorus as above.

Instrumental is intro picking clean with singing "I looked above... to the heavens..."

The drums and kyle only playing then come in after Tom beat with below
Slide up and down constant single string
D|--------------------|---------------------------------|---------------------------------|---
A|--------------------|---------------------------------|---------------------------------|---
F|--------------------|---------------------------------|---------------------------------|---
C|-3/12-3-0--0-3-0--0-|---------------------------------|---------------------------------|---
G|-3-12-3-0--0-3-0--0-|-8-8-8-8-8-8-8-8-8-8-8-8-8-8-8-8-|-5-5-5-5-5-5-5-5-5-5-5-5-5-5-5-5-|---
C|-3-12\3-0--0-3-0--0-|---------------------------------|---------------------------------|---



D|-------------------------------------------------|-----------|---------------------------------
A|-------------------------------------------------|-----------|---------------------------------
F|-------------------------------------------------|-----------|---------------------------------
C|-------------------------------------------------|-3-5-7-5-3-|---------------------------------
G|-12-12-12-12-12-12-12-12-12-12-12-12-12-12-12-12-|-3-5-7-5-3-|-8-8-8-8-8-8-8-8-8-8-8-8-8-8-8-8-
C|-------------------------------------------------|-3-5-7-5-3-|---------------------------------


Hold 10 and bend 14
D|--------------------------------------------------|-----------------------------
A|--------------------------------------------------|--10---------10--10--10--10--
F|--------------------------------------------------|------12b14--14--14--14--14--
C|--------------------------------------------------|-----------------------------
G|--5--5--5--5--5--5--5--5--5--5--5--5--5--5--5--5--|-----------------------------
C|--------------------------------------------------|-----------------------------

Repeat chorus as above x2.
http://www.guitartabcreator.com
Guitar Tab Creator is intended to store guitar tab created through the tool. It currently does not support in-line text editing. Any text you place in here will be lost. If you need to comment on your tab, please use the "Tab Notes" section located below.