Cope

(/) Slide Up  (\) Slide Down  (h) Hammer On  (p) Pull Off  (b) Bend (r) Release (v) Vibrato

Intro: Repeat x4. All harmonics.
E|-----------------------------------------------------
B|--7-----------7-----------7--------------7-----------
G|-----7-----5-----7-----5--------5--7--------7-----5--
D|--------7-----------7--------7--------7--------7-----
A|-----------------------------------------------------
E|-----------------------------------------------------


Verse: Repeat x2
"Her eyes are keen to explore..."
E|--------------------------------------------------7----------------7---------
B|--------7--------7---------15--------7--------10-----10-----10--------10-----
G|-----7--------7--------14---------7--------7-------------7------7---------7--
D|--0--------0--------0----------0--------0------------------------------------
A|-----------------------------------------------------------------------------
E|-----------------------------------------------------------------------------


Bridge:
"well....That everyone says has run dry"
E|------------------------------------------
B|------------7-----------------7-----------
G|--7--11--9-----7-----5--7--------7-----5--
D|--0--0---0--------7--------7--------7-----
A|------------------------------------------
E|--5--9---7--------------------------------


Verse:
"Places we've been before..."
E|-------------------------------------------------------14------------------14----------
B|---------15---------15--------7---------15---------17------17------17----------17------
G|-----14---------14---------7--------14---------14--------------14------14----------14--
D|--0----------0----------0--------0----------0------------------------------------------
A|---------------------------------------------------------------------------------------
E|---------------------------------------------------------------------------------------


Bridge:
"sure...take to the stage deflect the hate..."
E|------------------------------------------------
B|------------7-----------------7-----------------
G|--7--11--9-----7-----5--7--------7-----5--7-----
D|--0--0---0--------7--------7--------7--------7--
A|------------------------------------------------
E|--5--9---7--------------------------------------


Pre-Chorus:
Repeat x2 "Our stories reside in these castle walls.."
E|------------------------------------------------------------------------------
B|--10--10--10--7--8--7--10--10--10--7--8--7--10--10--10--7--8--7--8--7---------
G|--7---7---7---7--7--7--7---7---7---7--7--7--7---7---7---7--7--7--7--7--7h9p7--
D|------------------------------------------------------------------------------
A|------------------------------------------------------------------------------
E|------------------------------------------------------------------------------

Pre-Chorus:
Repeat x2 "We all have past that's regrettable.."
E|-----------------------------------------------------------------------------
B|--8--8--8--7--5--7--8--8--8--7--5--7--8--8--8--7--5--7--5-----5-----5--------
G|--7--7--7--7--7--7--7--7--7--7--7--7--7--7--7--7--7--7-----7-----7-----7-----
D|-----------------------------------------------------------------------------
A|-----------------------------------------------------------------------------
E|-----------------------------------------------------------------------------


Chorus: Repeat x2 (volume boost)
"A few seconds with you..."
E|-------------------------------------------------------------------------------
B|-------------------------------------------------------------------------------
G|--7--7--7--7--7\6--6--6/7--7--7--7\6--6--6-7--7--7--7\6--6--6-9--9--9--11--12--
D|-------------------------------------------------------------------------------
A|--5--5--5--5--5-4--4--4-5--5--5--5-4--4--4/5--5--5--5-4--4--4/7--7--7--9---10--
E|-------------------------------------------------------------------------------


"If you decline, I'm sure that I'll survive..."
E|------------5---------------5---------------5---------------5-----
B|--5h7p5--------5--5h7p5--------5--5h7p5--------5--5h7p5--------5--
G|---------7---------------7---------------7---------------7--------
D|------------------------------------------------------------------
A|------------------------------------------------------------------
E|------------------------------------------------------------------


Instrumental:Chorus effect.
E|---------------------------------------------------------------------------------------------
B|---------------------------------------------------------------------------------------------
G|------11--14------11--14--12--11------11--14------11--14--12--11------11--14------11--14-----
D|--12----------12------------------12----------12------------------12----------12-------------
A|---------------------------------------------------------------------------------------------
E|---------------------------------------------------------------------------------------------



E|-----------------------------------------|--------------------------------------------------
B|-----------------------------------------|--------------------------------------------------
G|--12--11--12--11------12--11-------------|----------11--14----------11--14--12--11----------
D|------------------12----------12--12/14--|--12--12----------12--12------------------12--12--
A|-----------------------------------------|--------------------------------------------------
E|-----------------------------------------|--------------------------------------------------



E|-----------------------------------------------------------------------------------------
B|-----------------------------------------------------------------------------------------
G|--11--14----------11--14--12--11----------11--14----------11--14--12--11--12--11---------
D|----------12--12------------------12--12----------12--12--------------------------12-----
A|-----------------------------------------------------------------------------------------
E|-----------------------------------------------------------------------------------------



E|--------------10/12\10--
B|------------------------
G|--12--11----------------
D|----------12------------
A|------------------------
E|------------------------


Instrumental cont with bass fills
E|----------|-----------------|---------------------------------------
B|----------|--7--------------|---------------------------------------
G|----------|-----7-----5-----|---------------------------------------
D|-------0--|--------7-----0--|--12--14--12--0--12--14--0--12--14--0--
A|--5/7--0--|--------------0--|------------------------------------0--
E|-------0--|--------------0--|------------------------------------0--



Middle: Palm Muted
"We all have past thats regrettable..."
E|-----------------------------------------------------
B|-----------------------------------------------------
G|-----------------------------------------------------
D|-----------------------------------------------------
A|-----------------------------------------------------
E|--5--5--5--5--5--5--5--5--5--5--5--5--5--5--5--5-----


"But from here on we can start again..."
E|--------------------------------------------------
B|--------------------------------------------------
G|--------------------------------------------------
D|--------------------------------------------------
A|--------------------------------------------------
E|--4--4--4--4--4--4--4--4--4--4--4--4--4--4--4--4--


"Make tonight feel so incredible..."
E|-----------------------------------------------------------------------------------------------
B|-----------------------------------------------------------------------------------------------
G|-----------------------------------------------------------------------------------------------
D|-----------------------------------------------------------------------------------------------
A|-----------------------------------------------------------------------------------------------
E|--3--3--3--3--3--3--3--3--3--3--3--3--3--3--3--3--4--4--4--0--0--0--4--4--4--0--0--0--4--4--0--


"When these four walls feel like..."
E|------------------5---------------------5---------------------5---------------------5--------
B|--5--5--5h7p5--------5--5--5--5h7p5--------5--5--5--5h7p5--------5--5--5--5h7p5--------5-----
G|---------------7---------------------7---------------------7---------------------7-----------
D|---------------------------------------------------------------------------------------------
A|---------------------------------------------------------------------------------------------
E|---------------------------------------------------------------------------------------------


"Just you know that I'll stop you from struggling.."
E|-----------------------------------------------------------------------------------------
B|--5--5--5h7p5-----------5--5--5h7p5-----------5--7p5-----7p5-----7p5-----7p5-----7p5-----
G|---------------7-----7---------------7-----7----------7-------7-------7-------7-------7--
D|------------------9---------------------9------------------------------------------------
A|-----------------------------------------------------------------------------------------
E|-----------------------------------------------------------------------------------------


"We all have past that's regrettable.."
E|-5-5-5-7-7-7-10-10-5-5-5-7-7-7-12-10-5-5-5-7-7-7-10-10-5-5-5-7-7-7-12-10-
B|-5-5-5-7-7-7-7--7--5-5-5-7-7-7-7--7--5-5-5-7-7-7-7--7--5-5-5-7-7-7-7--7--
G|-------------------------------------------------------------------------
D|-------------------------------------------------------------------------
A|-------------------------------------------------------------------------
E|-------------------------------------------------------------------------


"Make tonight feel so incredible.."
E|-5-5-5-7-7-7-7-7-10-10-10-9-9-9-10-9-10-10-10-9-9-9-10-10-10-9-9-9-10-9----
B|-5-5-5-7-7-7-7-7-7--7--7--7-7-7-7--7-7--7--7--7-7-7-7--7--7--7-7-7------10-
G|---------------------------------------------------------------------------
D|---------------------------------------------------------------------------
A|---------------------------------------------------------------------------
E|---------------------------------------------------------------------------


"When these four walls feel like they're..."
E|---5---7---10---5---7---10---10---7---5---|---5---7---10---5---7---10---10---7---5---
B|---5---7---7----5---7---7----7----7---5---|---5---7---7----5---7---7----7----7---5---
G|------------------------------------------|------------------------------------------
D|------------------------------------------|------------------------------------------
A|------------------------------------------|------------------------------------------
E|------------------------------------------|------------------------------------------


Chorus:
"A few seconds with you..." "Sur------------vi-i-i-i-i-i-ive..."
E|---------------------------------------------------------------------------------------------
B|---------------------------------------------------------------------------------------------
G|---7-------7-------7-------9-------11-------9---11-11-11-11-11-11-11-11-12-12-12-12-12-12-11-
D|-----0-------0-------0-------0--------0-------0-12-12-12-12-12-12-12-12-12-12-12-12-12-12-12-
A|---------------------------------------------------------------------------------------------
E|-0-----0-4-----4-5-----5/7-----7/9------9\7--------------------------------------------------


Repeat Chorus from as per first Chorus slighlty different rhythm for picking but you will hear it in beat.

Outro:
E|-----------------------------------------------------9p7-----------------
B|-------------------------------------------10-------------10-------------
G|---------11h12---------11---------------7---------9-----------9----------
D|-----12------------12------12/14\12--9---------7-----------------7-------
A|--9-------------9--------------------------------------------------------
E|-------------------------------------------------------------------------
http://www.guitartabcreator.com
Guitar Tab Creator is intended to store guitar tab created through the tool. It currently does not support in-line text editing. Any text you place in here will be lost. If you need to comment on your tab, please use the "Tab Notes" section located below.