The Cons and Pros of a Broken Nose

(/) Slide Up  (\) Slide Down  (h) Hammer On  (p) Pull Off  (b) Bend (r) Release (v) Vibrato
Intro:
listen for strumming
D|---------------|--------------|------------|--------------------|-----------------
A|---------------|--------------|------------|--------------------|-----------------
F|-11-11-11-9/14-|-11-11-11-9\7-|-11-11-11-9-|-11-11-11-11-11-9-7-|-7-7-7-7-7-7-7-7-
C|---------------|--------------|------------|--------------------|-----------------
G|-9--9--9--7-12-|-9--9--9--7-5-|-9--9--9--7-|-9--9--9--9--9--7-5-|-5-5-5-5-5-5-5-5-
C|---------------|--------------|------------|--------------------|-----------------



D|------------|-------------|---------|---------------
A|------------|-------------|---------|-10-10-7-8-7-8-
F|-9-9-9-7-11-|-9-9-9-7---7-|-9-9-9-7-|-7--7--7-7-7-7-
C|-7-7-7-7-7--|-7-7-7-7-9-7-|-7-7-7-7-|-7--7--7-7-7-7-
G|------------|-------------|---------|---------------
C|------------|-------------|---------|---------------

Verse: (repeat x2)
"I guess it's about time this story was told..."
D|-----------------------------------------------|-------------------
A|-----------------------------------------------|-------------------
F|-----------------------------------------------|-------------------
C|-14-14-14-14-----16-16-16-16-----16-----16-----|-12-12-12-12-----9-
G|-12-12-12-12-x-x-12-12-12-12-x-x-12-x-x-12-x-x-|-9--9--9--9--x-x-5-
C|-12-12-12-12-x-x-12-12-12-12-x-x-12-x-x-12-x-x-|-9--9--9--9--x-x-5-

Verse cont... (with delay)
"So now it all comes flooding back to me..."
D|-------------------------------------------------|------------------------------------------
A|-12-12-12----------------------------------------|-12-12-12---------------------------------
F|----------11-11-11-14-14-14----------------------|----------11-11-11-14-14-14----14----14---
C|----------------------------11-11-11-11-11-11-11-|----------------------------11----11------
G|-------------------------------------------------|------------------------------------------
C|-------------------------------------------------|------------------------------------------


"I'm just so afraid I can't displace..."
D|-------------------------------------------------|----------------------------------------
A|-12-12-12-------------------------------12----12-|-12-12-12-------------------------------
F|----------11-11-11-14-14-14----14----14----14----|----------11-11-11-14-14-14-------------
C|----------------------------11----11-------------|----------------------------11-12-11----
G|-------------------------------------------------|----------------------------------------
C|-------------------------------------------------|----------------------------------------

Bridge: (delay still on)
"Stop, have a look at some..."
D|------------------------------------------------------------------
A|-10-8-7-8-7-------10-8-7-8-7-------10-8-7-8-7---8-7---8-7---8-7---
F|------------9-7--------------9-7--------------9-----9-----9-----9-
C|------------------------------------------------------------------
G|------------------------------------------------------------------
C|------------------------------------------------------------------


"Keep singing these words right back to me..."
D|--------------------------------------------------------
A|---7--------7--------10------7-------7-------7--------7-
F|-9---9----9---9---9-----9--9---9---9---9---9---9---9----
C|-------9--------9----------------9-------9-------9------
G|--------------------------------------------------------
C|--------------------------------------------------------

Chorus: (repeat x 2)
"Everybody has their cons..."
D|--------------------------------------------------------
A|--------------------------------------------------------
F|-14--14-14-14-16-16-19--19-19/21-14-14----14-14\11-11-7-
C|--------------------------------------------------------
G|-12--12-12-12-14-14-17--17-17-19-12-12----12-12-9--9-\5-
C|--------------------------------------------------------


"My broken roman nose..."
D|-------------------------------------------19----19----19----19-
A|--------------------15-15-15-15/17-19-19------19----19----19----
F|-14--14-14-14-16-16---------------------------------------------
C|--------------------12-12-12-12-14-16-16------------------------
G|-12--12-12-12-14-14---------------------------------------------
C|----------------------------------------------------------------

Repeat Intro

Repeat Verse

Repeat Bridge

Repeat Chorus

Middle 8 (with delay)
"Eyes...the things that I love the most..."
D|-------------5-5-----------------------------5-5-7-7-7-7---------|-
A|-5-5-5-7-7-7-----5-5-5-7-7-7-----5-5-5-7-7-7-------------7-7-----|-
F|-----------------------------7-7-----------------------------7-7-|- repeat this part x2
C|-----------------------------------------------------------------|-
G|-----------------------------------------------------------------|-
C|-----------------------------------------------------------------|-


"stars from the sky..."
D|-------------------17-17-------------------------|-19-19-19-17-17-17-------------------
A|-17-17-17-19-19-19-------17-17-17-19-19-19-------|-------------------19-19-19----------
F|-------------------------------------------19-19-|----------------------------19-19-19-
C|-------------------------------------------------|-------------------------------------
G|-------------------------------------------------|-------------------------------------
C|-------------------------------------------------|-------------------------------------


"as bright...as the ones staring into mine... oh"
D|------------------------------------------------------
A|---7--------7-------10------7-------7-------7-------7-
F|-9---9----9---9---9----9--9---9---9---9---9---9---9---
C|-------9--------9---------------9-------9-------9-----
G|------------------------------------------------------
C|------------------------------------------------------


Repeat Chorus but second part instead of Octaves play below with delay effect.
D|------------------------------------------------------------------------------------------
A|-------------------------------------15-15-15-15-15-17------------------------------------
F|-14-14-14-14-14-14-14-14-16-16-16-16-------------------14-14-14-14-14-14-14-14-14-14-14---
C|------------------------------------------------------------------------------------------
G|------------------------------------------------------------------------------------------
C|------------------------------------------------------------------------------------------



D|----------------------------------------------------------------------------------------------
A|-------------------------------------15-15-15-15-15-17-19-15-17-19-15-17-19-15-17-19-15-17-19-
F|-14-14-14-14-14-14-14-14-16-16-16-16----------------------------------------------------------
C|----------------------------------------------------------------------------------------------
G|----------------------------------------------------------------------------------------------
C|----------------------------------------------------------------------------------------------
http://www.guitartabcreator.com
Guitar Tab Creator is intended to store guitar tab created through the tool. It currently does not support in-line text editing. Any text you place in here will be lost. If you need to comment on your tab, please use the "Tab Notes" section located below.