SONG

(/) Slide Up  (\) Slide Down  (h) Hammer On  (p) Pull Off  (b) Bend (r) Release (v) Vibrato
E|-------------------------------------------
B|-------------------------------------------
G|-------------------------------------------
D|-------------------------------------------
A|-------------------------------------------
E|-0-0-----0-0-----0-0-0-0-----0-0-0-----0-0-



E|---------------------------------------------------
B|---------------------------------------------------
G|---------------------------------------------------
D|---------------------------------------------------
A|---------------------------------------------------
E|-0-0-----0-0-----0-0-0-0-----0-0-0-----0-0-5--7--6-



E|-------------------------------
B|-------------------------------
G|-------------------------------
D|-------------------------------
A|-------------------------------
E|-0--5h6--6--0-5h6--6--0-5h6--3-



E|----------------------------------------------------------
B|----------------------------------------------------------
G|----------------------------------------------------------
D|----------------------------------------------------------
A|----------------------------------------------------------
E|-0--5h6--6--0--5h6--6--0--5h6--3--3-3--3-3-3/5--5-5-5-5-5-



E|----------------------------------------------------
B|----------------------------------------------------
G|----------------------------------------------------
D|----------------------------------------------------
A|----------------------------------------------------
E|-10----10----10\5----5----5\3----3----3/6----6----6-



E|-----------------------------------------------------------------------
B|-----------------------------------------------------------------------
G|-----------------------------------------------------------------------
D|-----------------------------------------------------------------------
A|-----------------------------------------------------------------------
E|-10-10-10-10-10-10-10-10\5-5-5-5-5-5-5-5\3-3-3-3-3-3-3-3/6-6-6-6-6-6-6-



E|--------------------------------------------------------------------------
B|--------------------------------------------------------------------------
G|--------------------------------------------------------------------------
D|--------------------------------------------------------------------------
A|--------------------------------------------------------------------------
E|-10-10-10-10-10-10-10-10\5-5-5-5-5-5-5-5\3-3-3-3-3-3-3-3-0---0----0-0-0-0-



E|-------------------
B|-------------------
G|-------------------
D|-------------------
A|-------------------
E|-0----0----0-0-0-0-



E|-------------------------
B|-------------------------
G|-------------------------
D|-------------------------
A|-------------------------
E|-0-0---0-0---0-0-0-0-0-0-



E|-----------------------
B|-----------------------
G|-----------------------
D|-----------------------
A|-----------------------
E|-0-0---0-0---0-0-0-0-0-



E|-----------------------
B|-----------------------
G|-----------------------
D|-----------------------
A|-----------------------
E|-0-0---0-0---0-0-0-0-0-



E|-------------------------
B|-------------------------
G|-------------------------
D|-------------------------
A|-------------------------
E|-0-0---0-0---0-0-0-0-0-0-



E|-------------------------------------
B|-------------------------------------
G|-------------------------------------
D|-------------------------------------
A|-------------------------------------
E|-3---3---3-3-3-3-3/5---5---5-5-5-5-5-



E|-------------------------------------------------------------------------
B|-------------------------------------------------------------------------
G|-------------------------------------------------------------------------
D|-------------------------------------------------------------------------
A|-------------------------------------------------------------------------
E|-10-10-10-10-10-10-10-10\5-5-5-5-5-5-5-5\3-3-3-3-3-3-3-3/6-6-6-6-6-6-6-6-



E|--------------------------------------------------------------
B|--------------------------------------------------------------
G|--------------------------------------------------------------
D|--------------------------------------------------------------
A|--------------------------------------------------------------
E|-0-----0--0--0--0-----0-0-0----0-0-0----0--0--0--0--5---7---6-



E|------------------------------------------------------------------
B|------------------------------------------------------------------
G|------------------------------------------------------------------
D|------------------------------------------------------------------
A|------------------------------------------------------------------
E|-0-0-0----0-0-0-0-0----0-0-0----0-0-0-0-0----0-0-0-1b---0-0-0-0-0-



E|-------------------------------------------------------------------------------
B|-------------------------------------------------------------------------------
G|-------------------------------------------------------------------------------
D|-------------------------------------------------------------------------------
A|-------------------------------------------------------------------------------
E|-0-0-0----0-0-0-0-0----0-0-0----0-0-0-0-0----0-0-0-1b---0-0-0-0-0----0-0-0-0---
http://www.guitartabcreator.com
Guitar Tab Creator is intended to store guitar tab created through the tool. It currently does not support in-line text editing. Any text you place in here will be lost. If you need to comment on your tab, please use the "Tab Notes" section located below.