Composition

(/) Slide Up  (\) Slide Down  (h) Hammer On  (p) Pull Off  (b) Bend (r) Release (v) Vibrato

E|----------------------------------------------------------------
B|----------------------------------------------------------------
G|---------------------------------------------------------------- }--Verse X2
D|-0-0-0-0-0-0-0-0-3-3-3-3-3-3-3-3-5-5-5-5-5-5-5-5-9-9-9-9-9-9-9-9
A|-0-0-0-0-0-0-0-0-3-3-3-3-3-3-3-3-5-5-5-5-5-5-5-5-9-9-9-9-9-9-9-9
D|-0-0-0-0-0-0-0-0-3-3-3-3-3-3-3-3-5-5-5-5-5-5-5-5-9-9-9-9-9-9-9-9

E|------------------------------------------------
B|------------------------------------------------
G|-7-7-7-7-7-7-7-7-----------------5-5-5-5-5-5-5-5
D|-7-7-7-7-7-7-7-7-3-3-3-3-3-3-3-3-5-5-5-5-5-5-5-5-5-5-5-5-5-5-5-5
A|-5-5-5-5-5-5-5-5-3-3-3-3-3-3-3-3-3-3-3-3-3-3-3-3-5-5-5-5-5-5-5-5 }--Chorus 1 X2
D|-----------------3-3-3-3-3-3-3-3-----------------5-5-5-5-5-5-5-5

E|----------------------------------------------------------------
B|----------------------------------------------------------------
G|-----------------5-5-5-5-5-5-5-5--------------------------------
D|-3-3-3-3-3-3-3-3-5-5-5-5-5-5-5-5-5-5-5-5-5-5-5-5-9-9-9-9-9-9-9-9 }--Bridge start X3
A|-3-3-3-3-3-3-3-3-3-3-3-3-3-3-3-3-5-5-5-5-5-5-5-5-9-9-9-9-9-9-9-9
D|-3-3-3-3-3-3-3-3-----------------5-5-5-5-5-5-5-5-9-9-9-9-9-9-9-9

E|----------------------------------------------------------------
B|----------------------------------------------------------------
G|-----------------5-5-5-5-5-5-5-5-----------------7-7-7-7-7-7-7-7
D|-3-3-3-3-3-3-3-3-5-5-5-5-5-5-5-5-5-5-5-5-5-5-5-5-7-7-7-7-7-7-7-7 }--Bridge 4th time
A|-3-3-3-3-3-3-3-3-3-3-3-3-3-3-3-3-5-5-5-5-5-5-5-5-5-5-5-5-5-5-5-5
D|-3-3-3-3-3-3-3-3-----------------5-5-5-5-5-5-5-5----------------

E|-
B|-
G|-
D|-
A|-
D|-
Guitar Tab Creator is intended to store guitar tab created through the tool. It currently does not support in-line text editing. Any text you place in here will be lost. If you need to comment on your tab, please use the "Tab Notes" section located below.