Bass Lessons

(/) Slide Up  (\) Slide Down  (h) Hammer On  (p) Pull Off  (b) Bend (r) Release (v) Vibrato


E|--------------|--------------|--------------|--------------|-----
B|--------------|--------------|--------------|--------------|-----
G|--------------|--------------|--------------|--------------|-----
D|--------------|-----2--4--5--|--5--4--2-----|--------------|-----
A|--------2--3--|--5-----------|-----------5--|--3--2--------|-----
E|--3--5--------|--------------|--------------|--------5--3--|-----



E|--------------|--------------|--------------|--------------|-----
B|--------------|--------------|--------------|--------------|-----
G|--------------|--------------|--------------|--------------|-----
D|--------------|--------------|--------------|--------------|-----
A|--------------|--------------|--3--3--3--3--|--5--5--5--5--|-----
E|--3--3--3--3--|--5--5--5--5--|--------------|--------------|-----



E|--------------|--------------|--------------|--------------|-----
B|--------------|--------------|--------------|--------------|-----
G|--------------|--------------|--------------|--------------|-----
D|--------------|--------------|-----5-----3--|-----7-----5--|-----
A|-----5-----3--|-----7-----5--|--3-----5-----|--5-----7-----|-----
E|--3-----5-----|--5-----7-----|--------------|--------------|-----
http://www.guitartabcreator.com
Guitar Tab Creator is intended to store guitar tab created through the tool. It currently does not support in-line text editing. Any text you place in here will be lost. If you need to comment on your tab, please use the "Tab Notes" section located below.