fuckoff

(/) Slide Up  (\) Slide Down  (h) Hammer On  (p) Pull Off  (b) Bend (r) Release (v) Vibrato


E|--------------------------------------------------------------------------
B|--------------------------------------------------------------------------
G|--------------------------------5-----------------------------------5-----
D|-----------3-----------3-----7-----3-----------3-----------3-----7-----3--
A|-----7-----------7-----------------------7-----------7--------------------
E|--5-----5-----5-----5-----5-----------6-----6-----6-----6-----6-----------



E|--------------------
B|--------------------
G|--------------------
D|-----------3-----5--
A|-----7--------------
E|--6-----6-----6-----
http://www.guitartabcreator.com
Guitar Tab Creator is intended to store guitar tab created through the tool. It currently does not support in-line text editing. Any text you place in here will be lost. If you need to comment on your tab, please use the "Tab Notes" section located below.