So This How It Ends

(/) Slide Up  (\) Slide Down  (h) Hammer On  (p) Pull Off  (b) Bend (r) Release (v) Vibrato


E|-----5--5h7-----5--7--7/8--7-----5--7--7/8--7--5----------------------------------------------
B|--------------------------------------------------7--5--5h7p5\4--5--7--7/8--7--5--4-----------
G|-------------------------------------------------------------------------------------6--8--9--
D|----------------------------------------------------------------------------------------------
A|----------------------------------------------------------------------------------------------
E|--0----------0----------------0---------------------------------------------------------------



E|-----------------------------------------------------------------------------------------------
B|-----------------------------------------------------------------------------------------------
G|------------------------------------------------7--9--7-------------------------------9--7-----
D|-----------5--7--7/9--7--------------5--7--7/9-----------9-----------5--4--5--5/7--7--------9--
A|-----7--9----------------9-----7--9----------------------------7--9----------------------------
E|--0-------------------------0-------------------------------0----------------------------------



E|--------------------------12--10--------------------12p10--------------------------12--10------
B|----------------------------------12--10--10h12------------12--10--8--8/10--10-------------12--
G|-----------------------------------------------------------------------------------------------
D|--7--9--7--------------------------------------------------------------------------------------
A|-----------9--5--2--5--------------------------------------------------------------------------
E|-----------------------0-------------------------0------------------------------0--------------



E|---------------------------------------------------------------------------------------------
B|--10--8--8/10--10--12--12--13--12--10--8--8/10--------------0-----------------------------0--
G|------------------------------------------------------------0--2--2-----------------------0--
D|------------------------------------------------------0-----0--------------0--------0-----0--
A|---------------------------------------------------2--------0--------0--0-----0--2--------0--
E|------------------------------------------------0--------3-----------------------------3-----



E|----------------------------------------------------------------------------------------
B|-------------------------------------0--------------------------------------------------
G|--2--2--2h4--4-----------------------0--2--2--2h4--4--4/5--4--2--0--2--2h4--2--0--------
D|----------------0--0--0--------0-----0--------------------------------------------4--2--
A|-------------------------0--2--------0--------------------------------------------------
E|----------------------------------3-----------------------------------------------------



E|--------------------------------------------------------------------------------------------
B|--------------------------------------------------------------------------------------------
G|--------------------------------------------5--4--------------------------------------------
D|--------------2--4--5--4-----------2--4--5--------------2--4--5--4--7--------2--4--5--4--9--
A|--------------------------5--2--5-----------------2--5-----------------2--5-----------------
E|--0--0--0--0--------------------------------------------------------------------------------



E|---------------------15--14--------------12--14--15--14--17----------12--14--15--14------
B|-----------------------------15--12--15----------------------12--15------------------15--
G|-----------------------------------------------------------------------------------------
D|--9--9b9v--9/12--12----------------------------------------------------------------------
A|-----------------------------------------------------------------------------------------
E|-----------------------------------------------------------------------------------------



E|-------------------------12--14--15--14--------------12--14--15------19--17----------12--14--
B|--15b12----------12--15------------------12--12--15--------------15----------12--15----------
G|---------12--14------------------------------------------------------------------------------
D|---------------------------------------------------------------------------------------------
A|---------------------------------------------------------------------------------------------
E|---------------------------------------------------------------------------------------------



E|--15--14-------------15--20--19--
B|----------15--15b17--------------
G|---------------------------------
D|---------------------------------
A|---------------------------------
E|---------------------------------



E|-------------------------------------------------------------------------------------
B|--------------0-----------------------------0-------------------------------------0--
G|--------------0--2--2-----------------------0--2--2--2h4--4-----------------------0--
D|--------0-----0--------------0--------0-----0----------------0--0--0--------0-----0--
A|-----2--------0--------0--0-----0--2--------0-------------------------0--2--------0--
E|--0--------3-----------------------------3-------------------------------------3-----



E|------------------------------------------------------------------------------------
B|---------------------------------------------------------------0--------------------
G|--2--2--2h4--4--4/5--4--2--0--2--------------2--2--------------0--2--2--------------
D|------------------------------------0--0--0--------------0-----0--------------0-----
A|---------------------------------0--------------------2--------0--------0--0-----0--
E|---------------------------------------------------0--------3-----------------------



E|---------------------------------------------------------------------------------------
B|-----------0------------------------------------0--------------------------------------
G|-----------0--2--2--2h4--4--4h5p4\2p0-----------0--2--2--2h4--4--4/5--4--2--0--2--2h4--
D|-----0-----0------------------------------0-----0--------------------------------------
A|--2--------0---------------------------2--------0--------------------------------------
E|--------3------------------------------------3-----------------------------------------



E|--------------------------
B|--------------------------
G|--2--0--------------------
D|--------4--2--------------
A|--------------------------
E|--------------0--0--0--0--
http://www.guitartabcreator.com
Guitar Tab Creator is intended to store guitar tab created through the tool. It currently does not support in-line text editing. Any text you place in here will be lost. If you need to comment on your tab, please use the "Tab Notes" section located below.