Petite Etude by Triumph

(/) Slide Up  (\) Slide Down  (h) Hammer On  (p) Pull Off  (b) Bend (r) Release (v) Vibrato


E|-1--1p0-----------------------------0----------------------------------------------------
B|-1------3---1---1p0-----1-3-----3-----3---3-1---1p0---------0-1------1-3-----1h3p1p0-----
G|-2--------2---2-----0-------0-----------0-----0-----0-2---2---2----2-----2-----------2---
D|-0--------------------0-------0-------------------------2-----2--2-----3---3-----------3-
A|-0------------------------2-------3---------2---------0-------0--------------------------
E|----------------3---------------------------------------------3--------------------------



E|---------------------------------------------------5--3h5p3-1h3p1p0-----------0-1-----1-
B|---------------0---1-----1p0-1---3---2/5-----5-6-8-6----------------3-1-3-----------0---
G|-2-1-----1-2---------2---------2---0-------6-------5----------------------0-------0-----
D|-----2-------2---2-----2-----------------5---------0------------------------0-----------
A|-------2------------------------------------------------------------------------0-------
E|---0---------------0----------------------------------------------------3---------------



E|-3-----1-0---------------------------0------0-1-1p0---------0---------------0-------0-------
B|---1---------3---1-----1p0-1---3-----1----1---1-----3---1----------0-1---3--0-----0---0-----
G|-----0-----0---0---2---------2---0---0--0-----2-------1---1------1-----1----5---5-------5---
D|---------------------2---------------2--------0----------------2------------5-5-----------5-
A|-3-------2-------0-------------------3------------------------------------------------------
E|-------------------------------------3----------------------0-------------------------------



E|---------5--7p5--10p8--7-5----------------5-
B|------------7-5--8-----7p5--7p5--------3--3-
G|-----0------5----9-----5----7-5------0----0-
D|---4---4----0---------------5------4------4-
A|-0----------0--------------------5--------5-
E|--------------------------------------------
http://www.guitartabcreator.com
Guitar Tab Creator is intended to store guitar tab created through the tool. It currently does not support in-line text editing. Any text you place in here will be lost. If you need to comment on your tab, please use the "Tab Notes" section located below.