Pueblo Nuevo

(/) Slide Up  (\) Slide Down  (h) Hammer On  (p) Pull Off  (b) Bend (r) Release (v) Vibrato
E|--------------------------------------------------------
B|-----------------------1--0-----------------------------
G|--------------0--2--4--------3--2--1-----3--1--3--0-----
D|-----0--2--3--------------------------1-----------------
A|--3-----------------------------------------------------
E|--------------------------------------------------------



E|-----------------------------------0--1--2--3--5--3--2--7--6--5--3--1--------------
B|-----------------------------1--4--------------------------------------3--------4--
G|--1--4--2--1--3--1--3--1--3-----------------------------------------------1--4-----
D|-----------------------------------------------------------------------------------
A|-----------------------------------------------------------------------------------
E|-----------------------------------------------------------------------------------



E|--------------------0--------------------------------------
B|-----1-----0--1--2-----4--3--1--------0--------------------
G|--------2-----------------------1--2-----2--------0--------
D|--2-----------------------------------------3--0-----3--2--
A|-----------------------------------------------------------
E|-----------------------------------------------------------



E|--------5--5--5--5\
B|-------------------
G|--2--2-------------
D|-------------------
A|-------------------
E|-------------------



E|--------0--------0--------0--1--------------1-----------------0-----0--1--0--
B|--1--3-----1--3-----1--3--------4--3--2--4-----4--2--1--1--0-----0-----------
G|-----------------------------------------------------------------------------
D|-----------------------------------------------------------------------------
A|-----------------------------------------------------------------------------
E|-----------------------------------------------------------------------------
http://www.guitartabcreator.com
Guitar Tab Creator is intended to store guitar tab created through the tool. It currently does not support in-line text editing. Any text you place in here will be lost. If you need to comment on your tab, please use the "Tab Notes" section located below.