John Clarke - No Pretense

(/) Slide Up  (\) Slide Down  (h) Hammer On  (p) Pull Off  (b) Bend (r) Release (v) Vibrato
E|--5--------5-------------
B|--6--------5-------------
G|--7--------5-------------
D|--7--------7-------------
A|--5--------7-------------
E|--5--------5-------------



E|---------------------------------------------------------------------------7--7--
B|--6----6--6----6--6--6p5---------------------------------------5--3--5--6--6--6--
G|--------------------------7--5--4--5--4---------------4--5--7--------------------
D|-----------------------------------------2----2--2-------------------------------
A|---------------------------------------------------------------------------------
E|---------------------------------------------------------------------------------



E|--8--7--5-----5-----5--7--5----5--5----5--5/12--10--8--7h8--10--8--7--8--7--5--5--
B|-----------8-----8----------------------------------------------------------------
G|----------------------------------------------------------------------------------
D|----------------------------------------------------------------------------------
A|----------------------------------------------------------------------------------
E|----------------------------------------------------------------------------------



E|--3--5/8--7--5--7--5----5--5h12--10--8--7h8--10--8--7--7/13p12--12--12h13--12h13--12h13--12--
B|---------------------------------------------------------------------------------------------
G|---------------------------------------------------------------------------------------------
D|---------------------------------------------------------------------------------------------
A|---------------------------------------------------------------------------------------------
E|---------------------------------------------------------------------------------------------



E|---------------------------------------------------------------
B|---------------------------------------------------------------
G|---------------------------------------------------------------
D|---------------------------------------------------------------
A|--5--5--5--5--8--7--5--5--5h8----------------------------------
E|-------------------------------5--5--5--5--8--7--5--5--5h8--5--



E|-------------------------------------------------------------------------------------
B|--6--6--5--6----6--5--6----5--6--8--5--5-----5----5-----5-------5--6--6--6--5--6-----
G|------------------------------------------7----------7-------7-----------------------
D|-------------------------------------------------------------------------------------
A|-------------------------------------------------------------------------------------
E|-------------------------------------------------------------------------------------



E|-----------8--8--8--8--7--8p7p0--5-----------------------------5-----7--5-----5--
B|--6--5--6---------------------------6--5--------------5--6--8-----8--------8-----
G|------------------------------------------7--4--5--7-----------------------------
D|---------------------------------------------------------------------------------
A|---------------------------------------------------------------------------------
E|---------------------------------------------------------------------------------



E|--8--8--7--8--8----8--7--8----7--8--10--7--7--------7--------7------7------7--8-----
B|----------------------------------------------10-------10-------10-----10-----------
G|------------------------------------------------------------------------------------
D|------------------------------------------------------------------------------------
A|------------------------------------------------------------------------------------
E|------------------------------------------------------------------------------------



E|--8--8--7--8--8/12--10--8--7--8--10--8--7--8------13--13--12--13--13----13--12--13-------
B|-----------------------------------------------------------------------------------------
G|-----------------------------------------------------------------------------------------
D|-----------------------------------------------------------------------------------------
A|-----------------------------------------------------------------------------------------
E|-----------------------------------------------------------------------------------------



E|--12--13--15--12--12------12----------------------12------12h13p12----------
B|----------------------15------15--13--12--13--15------15------------15--13--
G|----------------------------------------------------------------------------
D|----------------------------------------------------------------------------
A|----------------------------------------------------------------------------
E|----------------------------------------------------------------------------



E|--13--13----13----12--13--12--17--17--13--12----10--12--13--12--10--8--10--12--10--8--7--
B|-----------------------------------------------------------------------------------------
G|-----------------------------------------------------------------------------------------
D|-----------------------------------------------------------------------------------------
A|-----------------------------------------------------------------------------------------
E|-----------------------------------------------------------------------------------------



E|--10------------8---------
B|--10------------10--------
G|--10------------9---------
D|--10----------------------
A|--10----------------------
E|--10----------------------



E|--1----------------
B|--2----------------
G|-------------5----- FOUT
D|-------------------
A|-------------------
E|-------------------



E|-----
B|-----
G|--7--
D|-----
A|-----
E|-----
http://www.guitartabcreator.com
Guitar Tab Creator is intended to store guitar tab created through the tool. It currently does not support in-line text editing. Any text you place in here will be lost. If you need to comment on your tab, please use the "Tab Notes" section located below.