Backing track spanish latin scales

(/) Slide Up  (\) Slide Down  (h) Hammer On  (p) Pull Off  (b) Bend (r) Release (v) Vibrato

E|-------------------------------------------------------------------------------------------------
B|-------------------------------------------------------------------------------------------------
G|-----------------------------------------------------------------------1--3--4--6--8--9--11--13--
D|------------------------------------------------2--4--6--8--9--11--13----------------------------
A|-------------------------2--4--6--7--9--11--12---------------------------------------------------
E|--2--4--6--7--9--11--12--------------------------------------------------------------------------



E|-------------------------2--4--6--7--9--11--12--14--
B|--2--4--5--7--9--11--12-----------------------------
G|----------------------------------------------------
D|----------------------------------------------------
A|----------------------------------------------------
E|----------------------------------------------------



E|-------------------------------2-4-6-9-7-6-----------------------------------------------
B|-------------------------2-4-5-------------9-7-5-----------------------------------------
G|-------------------1-3-4-------------------------9-8-6-----------------------------------
D|-------------2-4-6-------------------------------------9-8-6-----------------------------
A|-------2-4-6-------------------------------------------------9-7-6---------------9-11-12-
E|-2-4-6-------------------------------------------------------------9-7-6-9-11-12---------



E|-------------------------9-11-12-14-12-11--------------
B|-----------------9-11-12------------------12-9-11------
G|---------9-11-13----------------------------------9-11-
D|-9-11-13-----------------------------------------------
A|-------------------------------------------------------
E|-------------------------------------------------------



E|--------------------------------4--6--
B|--------------------------4--5--------
G|--------------------4--6--------------
D|--------------4--6--------------------
A|--------4--6--------------------------
E|--4--6--------------------------------
http://www.guitartabcreator.com
Guitar Tab Creator is intended to store guitar tab created through the tool. It currently does not support in-line text editing. Any text you place in here will be lost. If you need to comment on your tab, please use the "Tab Notes" section located below.