Rising Sign by Mike Doughty

(/) Slide Up  (\) Slide Down  (h) Hammer On  (p) Pull Off  (b) Bend (r) Release (v) Vibrato


E|-----2-----2--------2-----2--------2-----2--------5--------2-----
B|--------------3--------------3--------------3-----------------3--
G|-----------------------------------------------2-----------------
D|--------5--------------5--------------5--------------2--2--------
A|--2--------------2--------------2--------------------------------
E|-----------------------------------------------------------------



E|-----2-------2--------2-----2-----2-----2----------2-----2-----
B|-----3-------3--------3-----3-----3--------3-------3--------3--
G|--------2h4-----2-----------2----------------------------------
D|--2----------------5--------4--------5--------4h5--------------
A|-------------------------5-----2----------------------5--------
E|---------------------------------------------------------------



E|-----2-------3-----0--
B|-----3--3----3--5--5--
G|-----4--2h4--4--3--3--
D|--------2----2--4--4--
A|--2-------------------
E|----------------------
http://www.guitartabcreator.com
Guitar Tab Creator is intended to store guitar tab created through the tool. It currently does not support in-line text editing. Any text you place in here will be lost. If you need to comment on your tab, please use the "Tab Notes" section located below.