unforgiven

(/) Slide Up  (\) Slide Down  (h) Hammer On  (p) Pull Off  (b) Bend (r) Release (v) Vibrato


Chorus-with rythm figure 1
|------------------------------|--------------------------|
|------------------------------|--------------------------|
|--2--4--5~--5--------------5--|--5--4----4---------------|
|------------------------------|--------5---\2------------|
|------------------------------|--------------------------|
|------------------------------|--------------------------|
What I've felt, what I've known never shined throught in

|---------|---------------------------|
|---------|-----------------5---5-----|
|-2--2h4--|-2~~---2--4--5~~-----------|
|---------|---------------------------|
|---------|---------------------------|
|---------|---------------------------|
what I've shown. Never be Never see.

|--------------------|---------------------------|
|-5-3----------------|---------------------------|
|----4~~-4--/4-1-2h4-|-2~~--2-----4-----5~~~~----|
|--------------------|---------------------------|
|--------------------|---------------------------|
|--------------------|---------------------------|
Won't see what might have been. What I've felt,

|-----|--------------------------------------------------|
|-----|--------------------------------------------------|
|--5--|-5-4-----4---------------------2-------2h4--------|
|-----|-----5~~---\2-------------------------------------|
|-----|--------------------------------------------------|
|-----|--------------------------------------------------|
what I've known never shined through in what I've shown.


to coda
with rythm figure 2
|---------------------|----------------------------- -----
|-------------5--5----|-3--------------------------- -----
|-2~-2--4-5~----------|---4~~--4\--1--/4--1--2h4---- -2~~-
|---------------------|----------------------------- -----
|---------------------|----------------------------- -----
|---------------------|----------------------------- -----
Never free. Never me. So I dub the unforgiv - en
Guitar Tab Creator is intended to store guitar tab created through the tool. It currently does not support in-line text editing. Any text you place in here will be lost. If you need to comment on your tab, please use the "Tab Notes" section located below.