bach 2

(/) Slide Up  (\) Slide Down  (h) Hammer On  (p) Pull Off  (b) Bend (r) Release (v) Vibrato

(W|WW) Whole (H|HH) Half (Q|QQ) Quarter (E|EE) 8th (S|SS) 16th (T|TT) 32nd (X|XX) 64th

t: S S S S S S S S S S S S S S S S S S S S S S S S S S S S S S S S
E|--------------------------------------------------------------------------------------------------
B|--------0-----0-----0-----------0-----0-----0-----------0-----0-----0-----------0-----0-----0-----
G|-----------2-----------------------2-----------------------4-----------------------4--------------
D|-----0-----------0-----0-----0-----------0-----0-----2-----------2-----2-----2-----------2-----2--
A|--------------------------------------------------------------------------------------------------
E|--3-----------------------3-----------------------3-----------------------3-----------------------


t: S S S S S S S S S S S S S S S S S S S S S S S S S S S S S S S S S S
E|--------------------------------------------------------------------------------------------------------
B|--------------------------------------------------------------0-----0-----0-----------0-----0-----0-----
G|--------5--4--5-----5-----5--------5--4--5-----5-----5-----0-----2-----0-----0-----0-----2-----0-----0--
D|-----4-----------4-----4--------4-----------4-----4-----------------------------------------------------
A|--------------------------------------------------------------------------------------------------------
E|--3--------------------------3--------------------------3-----------------------3-----------------------


t: S S S S S S S S S S S S S S S S
E|--------------------------------------------------
B|--------0-----0-----------------------------------
G|-----------2-----0--------------------------------
D|-----0--------------4--5--2--5--4--5--------------
A|--------------------------------------2--5--4--2--
E|--3-----------------------------------------------


t: S S S S S S S S S S S S S S S S S S S S S S S S S S S S S S
E|--------------------------------------------------------------------------------------------
B|--------------------------------------------------------3--2--3-----------------------------
G|--------2-----2-----2-----------2-----2-----2--------2-----------2--0--2-----2--------------
D|-----5-----5-----5-----5-----5-----5-----5-----5--------------------------4-----2--5--4--2--
A|--4-----------------------4-----------------------4-----------------------------------------
E|--------------------------------------------------------------------------------------------


t: S S S S S S S S S S S S S S S S S S S
E|--------------------------------------------------------------
B|--------------------------------------------------------------
G|--------------------------------------------------------------
D|--------5--4--5-----5-----5-----------5--4--5-----5-----5-----
A|-----2-----------2-----2-----2-----2-----------2-----2--------
E|--0-----------------------------0-----------------------------


t: S S S S S S S S S S S S S S S S S S S S S S S S S S S S S S S
E|-----------------------------------------------------------------------------------------------
B|-----------------------------------------------------------------------------------------------
G|-----------------------------------7--6--4--------------------7--------------------------------
D|--------------------------5--4--------------7--5--4--------7-----4--7--------4--7--5--4--------
A|-----4--5--7--5--4--------------7--------------------7--5--------------5--7--------------7--4--
E|--0-----------------7--5-----------------------------------------------------------------------


t: S S S S S S S S S S S S S S S S S S S S S S S S S S S S S S S S
E|--------------------------------------------------------------------------------------------------
B|--------------------------------------------------------------------------------------------------
G|--------------------------------------------------------2--4--5--2--------------2--4--5--2--------
D|--6-----------------6-----9-----------------6--------2--------------2--------2--------------4--2--
A|-----5--8--7--8--5-----5-----5--8--7--8--5-----5--3--------------------5--3-----------------------
E|--------------------------------------------------------------------------------------------------


t: S S S S S S S S S S S S S S S S S S S S S S S S S S S S S S S S
E|--------------------------------------------------------------------------------------------------
B|--------------------------------------------------------------------------------------------------
G|--------------2-----2-----------------2-----2-----------------------2-----------------------------
D|--1--4--1--4-----4-----4--1--4--1--4-----4-----4--5--4--2--5--4--5-----4--5--4--2-----------------
A|-----------------------------------------------------------------------------------5--3--2--------
E|--------------------------------------------------------------------------------------------5--3--


t: S S S S S S S S S S S S S S S S S S S S S S S S S S S S S S S S S
E|-----------------------------------------------------------------------------------------------------
B|-----------------------------------------------------------------------------------------------------
G|-----------------------------------------------------------5--4--5-----5-----------5--4--5-----5-----
D|--------2--0--2-----2--------------2--0--2-----2--------4-----------4-----4-----4-----------4-----4--
A|-----3-----------3-----3--------3-----------3-----3--------------------------------------------------
E|--3-----------------------3--3-----------------------3-----------------------3-----------------------


t: S S S S S S S S S S S S S S S
E|--------------------------------------------------
B|--------0-----0-----------------------------------
G|-----------2-----0--------------------------------
D|-----0--------------4--2--------------------------
A|--------------------------5--3--2-----------------
E|--3--------------------------------5--3--2--0-----
http://www.guitartabcreator.com
Guitar Tab Creator is intended to store guitar tab created through the tool. It currently does not support in-line text editing. Any text you place in here will be lost. If you need to comment on your tab, please use the "Tab Notes" section located below.