115

(/) Slide Up  (\) Slide Down  (h) Hammer On  (p) Pull Off  (b) Bend (r) Release (v) Vibrato


(/) Slide Up (\) Slide Down (h) Hammer On (p) Pull Off (b) Bend (r) Release (v) Vibrato
G=G5
D|----------------|----------------|----------------|----------------|----------------|
A|----------------|----------------|----------------|----------------|----------------|
F|----------------|----------------|----------------|----------------|----------------|
C|7---7---7---7---|8---8---8---8---|5---5---5---5---|5-----8---7-----|7---7---7---7---|
G|--5---5---5---5-|--5---5---5---5-|--5---5---5---5-|--5-5---5---5-5-|--5---5---5---5-|
D|----------------|----------------|----------------|----------------|----------------|
(Riff B)
D|----------------|----------------|----------------|----------------|----------------|
A|----------------|----------------|----------------|----------------|----------------|
F|----------------|----------------|----------------|----------------|----------------|
C|8---8---8---8---|5---5---5---5---|----------------|----------------|----------------|
G|--5---5---5---5-|--5---5---5---5-|8-7-5-3---6---5-|--5---5---5---5-|--5---5---5---5-|
D|----------------|----------------|------3---6---5-|----5---5---5---|6---6---6---6---|


D|----------------|----------------|----------------|----------------|----------------|
A|----------------|----------------|----------------|----------------|----------------|
F|----------------|----------------|----------------|----------------|----------------|
C|----------------|----------------|----------------|----------------|----------------|
G|--5---5---5---5-|8-7-5-3---6---5-|--5---5---5---5-|--5---5---5---5-|--5---5---5---5-|
D|3---3---3---3---|------3---6---5-|----5---5---5---|6---6---6---6---|3---3---3---3---|

D|----------------|
A|----------------|
F|----------------|
C|----------------|
G|8-7-5-3---6---5-|
D|------3---6---5-|

(Riff C) half time feel
D|----------------|----------------|--------------|-----------------|
A|----------------|----------------|--------------|-----------------|
F|----------------|----------------|--------------|-----------------|
C|----------------|----------------|--------------|-----------------|
G|(5)-----5---5-5-|5/6-6-6/8-8-8-8-|5-----5---5-5-|5/9-9-9/12121212-|
D|(5)-----5---5-5-|5/6-6-6/8-8-8-8-|5-----5---5-5-|5/9-9-9/12121212-|

D|--------------|----------------|--------------|----------------|
A|--------------|----------------|--------------|----------------|
F|--------------|----------------|--------------|----------------|
C|--------------|----------------|--------------|----------------|
G|5-----5---5-5-|5/6-6-6/8-8-8-8-|5-----5---5-5-|3-3-3-6-6-6-6---|
D|5-----5---5-5-|5/6-6-6/8-8-8-8-|5-----5---5-5-|3-3-3-6-6-6-6---|

http://www.guitartabcreator.com
Guitar Tab Creator is intended to store guitar tab created through the tool. It currently does not support in-line text editing. Any text you place in here will be lost. If you need to comment on your tab, please use the "Tab Notes" section located below.