Walk Away

(/) Slide Up  (\) Slide Down  (h) Hammer On  (p) Pull Off  (b) Bend (r) Release (v) Vibrato

Walk Away

Drop D

Chorus
G|-----------------|--------------------|-----------------|--------------------------------|--
D|-----------------|--------------------|-----------------|--------------------------------|--
A|-----------------|--------------------|-----------------|--------------------------------|--
D|--0--12--10--12--|--0--0--12--10--12--|--0--12--10--12--|--13--12--0--13--12--0--13--12--|--


Verse
G|---------------------|--
D|---------------------|--
A|---------------------|--
D|--12--10--13--12--0--|--


Bridge
G|-----------------------------------------------------------------------------------------|--
D|-----------------------------------------------------------------------------------------|--
A|-----------------------------------------------------------------------------------------|--
D|--12--12--12--12--12--12--12--12--10--10--10--10--10--10--10--1--1--1--1--1--1--1--0--0--|--
"As I walk away and leave you to be, you will......."

Interlude
G|------------------------------------------------|--
D|------------------------------------------------|--
A|------------------------------------------------|--
D|--12--0--12--0--12--0--12--0--12--0--12--0--12--|--


Outro
G|---------------------|--
D|---------------------|--
A|---------------------|--
D|--13--12--0--10--12--|--
"I walk on..."
http://www.guitartabcreator.com
Guitar Tab Creator is intended to store guitar tab created through the tool. It currently does not support in-line text editing. Any text you place in here will be lost. If you need to comment on your tab, please use the "Tab Notes" section located below.