Road to Reason

(/) Slide Up  (\) Slide Down  (h) Hammer On  (p) Pull Off  (b) Bend (r) Release (v) Vibrato

Intro 2X Verse 4X
E|--------------------------------------|--------------|--
B|--------------------------------------|--------------|--
G|--------------------------------------|--------------|--
D|--------------------------------------|--------------|--
A|--2--2--2--2--0--0--------------------|--2--0--------|--
E|--------------------3--3--3--2--2--2--|--------3--2--|--


Chorus 3X 1X
E|--------------|-----------|--
B|--------------|-----------|--
G|--------------|-----------|--
D|--------------|-----------|--
A|--7--5--0-----|--2--3-----|--
E|-----------5--|--------2--|--


Bridge 3X 1X 4X
E|-----------------------|---------------------|----------------------------------------|--
B|-----------------------|---------------------|----------------------------------------|--
G|-----------------------|---------------------|----------------------------------------|--
D|-----------------------|---------------------|----------------------------------------|--
A|--3--5--6--5--3--2--0--|--2--3--5--7--9--10--|--10--10--10--10--10--9--9--9--9--9--9--|--
E|-----------------------|---------------------|----------------------------------------|--


Bridge (cont.)
E|--------------|-----------------------|--
B|--------------|-----------------------|--
G|--------------|-----------------------|--
D|--------------|-----------------------|--
A|--7--5--3--2--|--2--2--2--2--2--2--0--|--
E|--------------|-----------------------|--
http://www.guitartabcreator.com
Guitar Tab Creator is intended to store guitar tab created through the tool. It currently does not support in-line text editing. Any text you place in here will be lost. If you need to comment on your tab, please use the "Tab Notes" section located below.