New Song

(/) Slide Up  (\) Slide Down  (h) Hammer On  (p) Pull Off  (b) Bend (r) Release (v) Vibrato


Intro(verse 4X)
E|-----------------|-----------|--
B|-----------------|-----------|--
G|-----------------|-----------|--
D|-----------5-----|-----------|--
A|-----0--4-----4--|-----0--2--|--
E|--3--------------|--3--------|--


Chorus
E|-----------------|-----
B|-----------------|-----
G|-----------------|-----
D|-----------------|-----
A|--2-----5--7-----|-----
E|-----3--------7--|-----


Bridge(outro)
E|--------------------|--------------------------------------|--
B|--------------------|--------------------------------------|--
G|--------------------|--------------------------------------|--
D|--------------------|--------------------------------------|--
A|--5--5--8--8--2--2--|--5--5--5--5--8--8--8--8--2--2--2--2--|--
E|--------------------|--------------------------------------|--



http://www.guitartabcreator.com
Guitar Tab Creator is intended to store guitar tab created through the tool. It currently does not support in-line text editing. Any text you place in here will be lost. If you need to comment on your tab, please use the "Tab Notes" section located below.