Looking Glass

(/) Slide Up  (\) Slide Down  (h) Hammer On  (p) Pull Off  (b) Bend (r) Release (v) Vibrato


Intro 3X 4X
G|-----------------|-----------------------------------------------|--
D|-----------------|-----------------------------------------------|--
A|--0--3--4-----5--|--3--3--3--3-----------------------------------|--
E|-----------3-----|--------------3--3--3--5--5--5--5--5--5--5--5--|--



Verse 4X Chorus (pt.1) 4X
G|-----------|--------------------------------------------|--
D|-----------|--------------------------------------------|--
A|--0-----5--|--3--3--3--3--------------------------------|--
E|-----3-----|--------------3--3--3--5--5--5--5--5--5--5--|--



Chorus (pt.2) 4X (pt.3) 1x
G|-----------------------------|--------------------------------|--
D|-----------------------------|-----7-----5-----3--------------|--
A|--7--6--5--4--3--2--3--------|--------------------------------|--
E|-----------------------3--3--|--5-----3-----1-----0--0--0--0--|--




http://www.guitartabcreator.com
Guitar Tab Creator is intended to store guitar tab created through the tool. It currently does not support in-line text editing. Any text you place in here will be lost. If you need to comment on your tab, please use the "Tab Notes" section located below.