Tree

(/) Slide Up  (\) Slide Down  (h) Hammer On  (p) Pull Off  (b) Bend (r) Release (v) Vibrato


E|-------------------------------------------------------------------------------------------------
B|-------------------------------------------------------------------------------------------------
G|----------------------------------------------------------------------2----2--5----5--7----7-----
D|--2--------2--------2-------------------------------------------------2----2--5----5--7----7-----
A|-----3--------3--------3--------5--------5--------5-------------------0----0--3----3--5----5-----
E|--------5--------5--------5--0-----7--3-----7--3-----7--3--7-------------------------------------



E|------------------------------------------------------------------------------------------
B|------------------------------------------------------------------------------------------
G|--10---------10---------10---------10----------------5--------5-----5--------5------------
D|------10---------10---------10---------10---------------5--------5-----5--------5---------
A|----------8----------8----------8----------8------3--------3--------------3---------------
E|------------------------------------------------------------------------------------------



E|--------------------------------------------------
B|--------------------------------------------------
G|--12----------12----------12----------12----------
D|------12----------12----------12----------12------
A|----------10----------10----------10----------10--
E|--------------------------------------------------
http://www.guitartabcreator.com
Guitar Tab Creator is intended to store guitar tab created through the tool. It currently does not support in-line text editing. Any text you place in here will be lost. If you need to comment on your tab, please use the "Tab Notes" section located below.