miscommunication

(/) Slide Up  (\) Slide Down  (h) Hammer On  (p) Pull Off  (b) Bend (r) Release (v) Vibrato


E|--------------------------------------------------
B|--------------------------------------------------
G|--------------------------------------------------
D|--------------------------------------------------
A|--5--------4--------3--------2--------------2--4--
E|-----6--0-----5--0-----4--0-----3--0--2--4--------



E|--------------------------------------------
B|--------------------------------------------
G|--------------------------------------------
D|--------------------------------------4--1--
A|--5--------4--------3--------2--------------
E|-----6--0-----5--0-----4--0-----3--0--------



E|-------------------------------
B|-------------------------------
G|-------------------------------
D|----------------------------2--
A|--5------------1------------2--
E|-----6--0---------2--0------2--



E|--------------------------------------------------
B|--------------------------------------------------
G|--------------------------------------------------
D|--------------------------------------------------
A|--------6-----5-----------------------------2--4--
E|--3--3-----3-----0--0--6--0--0--5--0--2--4--------



E|--------------
B|--------------
G|--------------
D|--------------
A|-----6-----5--
E|--6-----5-----



E|-----------------
B|-----------------
G|-----------------
D|-----------------
A|-----------------
E|--0--6--6--6-----
http://www.guitartabcreator.com
Guitar Tab Creator is intended to store guitar tab created through the tool. It currently does not support in-line text editing. Any text you place in here will be lost. If you need to comment on your tab, please use the "Tab Notes" section located below.