destroyer

(/) Slide Up  (\) Slide Down  (h) Hammer On  (p) Pull Off  (b) Bend (r) Release (v) Vibrato
E|--------------------------------------------------------------------------------------------------
B|--------------------------------------------------------------------------------------------------
G|--------------------------------------------------------------------------------------------------
D|--------------------------------------------------------------------------------------------------
A|--3--4--3-----3----3--4--3-----3-------------------3--4--3-----3----3--4--3-----3--4--6--4--3--4--
E|-----------6----------------6-----6--4--6--4--3-------------6----------------6--------------------



E|------------------------------------------------------------------------------------------------
B|------------------------------------------------------------------------------------------------
G|------------------------------------------------------------------------------------------------
D|------------------------------------------------------------------------------------------------
A|--3--4--3-----3----3--4--3-----3-------------------3--4--3-----3--------------------------------
E|-----------6----------------6-----6--4--6--4--3-------------6-----4--6--4--6--4--3--4--3--2--3--



E|---------------------------------------------------------------------------------------
B|---------------------------------------------------------------------------------------
G|---------------------------------------------------------------------------------------
D|------------------------------------------------------------------------------------7--
A|-----------6-----------6-----------------------------6-----------6--------7--9--10-----
E|--5--4--3-----5--4--3-----5--4--3--4--3--2--5--4--3-----5--4--3-----5--4---------------



E|-----------------------------------------------------------------------------------------
B|-----------------------------------------------------------------------------------------
G|-----------------------------------------------------------------------------------------
D|-----------------------------------------------------------------------------------------
A|-----------6-----------6-----------------------------6-----------2--3--2-----2-----------
E|--5--4--3-----5--4--3-----5--4--3--4--3--2--5--4--3-----5--4--3-----------5-----5--3--5--



E|------------------------------------------------------------------
B|------------------------------------------------------------------
G|------------------------------------------------------------------
D|------------------------------------------------------------------
A|--3------6----3------6--3--6--3----2------5----2------5--2--5--2--
E|--5-----------5--------------------4-----------4------------------



E|-----------------------------------------
B|-----------------------------------------
G|-----------------------------------------
D|-----------------------------------------
A|--3--6--2--5--2--2--3--2-----2-----------
E|--------------------------6-----6--4--6--



E|-------------------------------------------------------
B|-------------------------------------------------------
G|-------------------------------------------------------
D|--1------------------------5------------------------7--
A|--1------------------------5------------------------7--
E|--1------------------------5------------------------7--



E|--------------------------------------------
B|--------------------------------------------
G|--------------------------------------------
D|----------------------------------1---------
A|----------------------------------1---------
E|--5--------8--------5--8--5--4----1---------



E|--------------------------------------------------
B|--------------------------------------------------
G|--------------------------------------------------
D|--------------------------------------------4--7--
A|-----------5--8--4--7-----------5--8--4--7--------
E|--5--8--4--------------5--8--4--------------------



E|-----------------------------------------------
B|-----------------------------------------------
G|-----------------------------------------------
D|--12----3----7----3--7--3----7--1--5--1--5--1--
A|--12----3----7----3--7--3----7--1--5--1--5--1--
E|--12----3----7----3--7--3----7--1--5--1--5--1--



E|----------------------------------------
B|----------------------------------------
G|----------------------------------------
D|----------------------------------5--6--
A|----2--5--2-----2-----------------5--6--
E|-------------5-----5--2--5--------5--6--



E|--------------------------------------------
B|--------------------------------------------
G|--------------------------------------------
D|--------------------------------------------
A|--------------------------------------------
E|--------------------------------------------



E|----------------------------------------------------------------------
B|----------------------------------------------------------------------
G|----------------------------------------------------------------------
D|--------------------------------------------------2--3--5--3--2--3----
A|--3--6--2--5----2-------------------3--6--2--5------------------------
E|-------------------5--3--5--3--2--------------------------------------



E|------------------------------------------------------
B|------------------------------------------------------
G|------------------------------------------------------
D|------------------------------------------------------
A|--3--6--2--5--2-------------------3--6--2--5----2--1--
E|-----------------5--3--5--3--2------------------2--1--



E|--------------------------------------------------------------------------------------------------
B|--------------------------------------------------------------------------------------------------
G|--------------------------------------------------------------------------------------------------
D|--------------2----------------------------2--3--5--3--2------------------------------------------
A|--3--6--2--5--2--5--3--5--2----3--6--2--5--2--3--5--3--2------------------------3--6--2--5--2--1--
E|--3--6--2--5-----5--3--5--2----3--6--2--5---------------------------------------3--6--2--5--2--1--
http://www.guitartabcreator.com
Guitar Tab Creator is intended to store guitar tab created through the tool. It currently does not support in-line text editing. Any text you place in here will be lost. If you need to comment on your tab, please use the "Tab Notes" section located below.