A nat minor

(/) Slide Up  (\) Slide Down  (h) Hammer On  (p) Pull Off  (b) Bend (r) Release (v) Vibrato

E|-----------------------------0-1-3-|---------------------------------3-5-7-8-|-
B|-----------------------0-1-3-------|---------------------------3-5-6---------|-
G|-------------------0-2-------------|---------------------2-4-5---------------|-
D|-------------0-2-3-----------------|-------------0-2-3-5---------------------|-
A|-------0-2-3-----------------------|-------0-2-3-----------------------------|-
E|-0-1-3-----------------------------|-0-1-3-----------------------------------|-



E|-----------------------------5-7-8-|-------------------------------------8-10-12-|-
B|-----------------------5-6-8-------|-----------------------------8-10-12---------|-
G|-------------------5-7-------------|----------------------7-9-10-----------------|-
D|-------------5-7-9-----------------|-------------5-7-9-10------------------------|-
A|-------5-7-8-----------------------|-------5-7-8---------------------------------|-
E|-5-7-8-----------------------------|-5-7-8---------------------------------------|-



E|---------------------------------------8-10-12-|---------------------------------------------
B|---------------------------------10-12---------|----------------------------------12-13-15---
G|-------------------------9-10-12---------------|----------------------------12-14------------
D|-----------------9-10-12-----------------------|-------------------12-14-15------------------
A|---------8-10-12-------------------------------|----------12-14-15---------------------------
E|-8-10-12---------------------------------------|-12-13-15------------------------------------



E|-------------------------------------------------15-17-19-20-|-
B|----------------------------------------15-17-18-------------|-
G|----------------------------12-14-16-17----------------------|-
D|-------------------12-14-15----------------------------------|-
A|----------12-14-15-------------------------------------------|-
E|-12-13-15----------------------------------------------------|-



E|-------------------------------------------15-17-|---------------------------------------------------
B|----------------------------------15-17-18-------|----------------------------------17-18-20---------
G|-------------------------14-16-17----------------|----------------------------17-19------------------
D|----------------14-15-17-------------------------|-------------------17-19-21------------------------
A|-------14-15-17----------------------------------|----------17-19-20---------------------------------
E|-15-17-------------------------------------------|-17-19-20------------------------------------------
http://www.guitartabcreator.com
Guitar Tab Creator is intended to store guitar tab created through the tool. It currently does not support in-line text editing. Any text you place in here will be lost. If you need to comment on your tab, please use the "Tab Notes" section located below.