A min Blues

(/) Slide Up  (\) Slide Down  (h) Hammer On  (p) Pull Off  (b) Bend (r) Release (v) Vibrato


E|-----------------------3-5-|-------------------------3-5-|-------------------------5-8-|-
B|-----------------1-3-4-----|-------------------3-4-5-----|---------------------5-8-----|-
G|-------------0-2-----------|---------------2-5-----------|---------------5-7-8---------|-
D|-------0-1-2---------------|-----------2-5---------------|-----------5-7---------------|-
A|---0-3---------------------|-----3-5-6-------------------|-----5-6-7-------------------|-
E|-3-------------------------|-3-5-------------------------|-5-8-------------------------|-



E|------------------------------8-10-11-12-|------------------------------------10-11-12-|-
B|-------------------------8-10------------|------------------------------10-13----------|-
G|-----------------5-7-8-9-----------------|-------------------------9-12----------------|-
D|-------------5-7-------------------------|----------------10-12-13---------------------|-
A|-----3-5-6-7-----------------------------|----------10-12------------------------------|-
E|-3-5-------------------------------------|-10-11-12------------------------------------|-



E|------------------------------------------------15-17-|-------------------------------12-15-17-|-
B|------------------------------------13-15-16-17-------|----------------------13-15-16----------|-
G|------------------------------12-14-------------------|----------------12-14-------------------|-
D|------------------10-12-13-14-------------------------|-------12-13-14-------------------------|-
A|------------10-12-------------------------------------|-12-15----------------------------------|-
E|-8-10-11-12-------------------------------------------|----------------------------------------|-



E|-------------------------------------15-17-|-------------------------------------17-20-|-
B|----------------------------15-16-17-------|-------------------------------17-20-------|-
G|----------------------14-17----------------|----------------------17-19-20-------------|-
D|----------------14-17----------------------|----------------17-19----------------------|-
A|-------15-17-18----------------------------|-------17-18-19----------------------------|-
E|-15-17-------------------------------------|-17-20-------------------------------------|-
http://www.guitartabcreator.com
Guitar Tab Creator is intended to store guitar tab created through the tool. It currently does not support in-line text editing. Any text you place in here will be lost. If you need to comment on your tab, please use the "Tab Notes" section located below.