E min blues

(/) Slide Up  (\) Slide Down  (h) Hammer On  (p) Pull Off  (b) Bend (r) Release (v) Vibrato

E|-------------------------0-3-5-6-7-|---------------------------3-5-6-7-|-
B|---------------------0-3-----------|-----------------------3-5---------|-
G|---------------0-2-3---------------|---------------0-2-3-4-------------|-
D|-----------0-2---------------------|-----------0-2---------------------|-
A|-----0-1-2-------------------------|-----0-1-2-------------------------|-
E|-0-3-------------------------------|-0-3-------------------------------|-



E|------------------------------------10-12-|-----------------------------------10-12-|-
B|-------------------------8-10-11-12-------|--------------------------10-11-12-------|-
G|---------------------7-9------------------|---------------------9-12----------------|-
D|-------------5-7-8-9----------------------|----------------9-12---------------------|-
A|---------5-7------------------------------|-------10-12-13--------------------------|-
E|-3-5-6-7----------------------------------|-10-12-----------------------------------|-



E|-------------------------------------12-15-|-------------------------------------------15-17---
B|-------------------------------12-15-------|-------------------------------------15-17---------
G|----------------------12-14-15-------------|-------------------------12-14-15-16---------------
D|----------------12-14----------------------|-------------------12-14---------------------------
A|-------12-13-14----------------------------|-------10-12-13-14---------------------------------
E|-12-15-------------------------------------|-10-12---------------------------------------------



E|----------------------------------------|---------------------7-10-|-
B|-------------------------------------20-|----------------8-10------|-
G|-------------------------------19-21----|------------7-9-----------|-
D|-------------------17-19-20-21----------|------7-8-9---------------|-
A|-------------17-19----------------------|-7-10---------------------|-
E|-15-17-18-19----------------------------|--------------------------|-
http://www.guitartabcreator.com
Guitar Tab Creator is intended to store guitar tab created through the tool. It currently does not support in-line text editing. Any text you place in here will be lost. If you need to comment on your tab, please use the "Tab Notes" section located below.