E maj country runs.

(/) Slide Up  (\) Slide Down  (h) Hammer On  (p) Pull Off  (b) Bend (r) Release (v) Vibrato


E|----------9-------------------|-12-12-12--12-12-12-12----------------|----------------------|-
B|---------------12-------------|-12-12-12--12-12-12-12----------------|----------------------|-
G|-11b13b11---11----11-9------9-|-11b13-13--11b13-13-11p9----9------9--|----------------------|-
D|-----------------------11-9---|-------------------------11---9-11----|-9-11-9-11-------9----|-
A|------------------------------|--------------------------------------|-----------10-11------|-
E|------------------------------|--------------------------------------|-------------------12-|-



E|------------------------10b12----12----|---------------------------------------12-14-15-14-12-|-
B|-12------------------12b10-12b12----12-|------------------------------12-14-12----------------|-
G|---------8/9-11-9-11-11----------------|-------------------9-11-12-13-------------------------|-
D|----9-11-------------------------------|------------9-11-9------------------------------------|-
A|---------------------------------------|----9-10-11-------------------------------------------|-
E|---------------------------------------|-12---------------------------------------------------|-



E|---------------------------0-|-3-4-5-3-4----------|-3---4-3-2-0-
B|---------------------------0-|-----------5-2----5-|-----------0-
G|---------------------------1-|---------------4----|-3---4-3-2-1-
D|-----1-1-1---------------2-2-|--------------------|-----------2-
A|-2-2-----------------2h4---2-|--------------------|-----------2-
E|-----------2b0---2/4-------0-|--------------------|-----------0-



E|-
B|-
G|-
D|-
A|-
E|-
http://www.guitartabcreator.com
Guitar Tab Creator is intended to store guitar tab created through the tool. It currently does not support in-line text editing. Any text you place in here will be lost. If you need to comment on your tab, please use the "Tab Notes" section located below.