E maj blues/country

(/) Slide Up  (\) Slide Down  (h) Hammer On  (p) Pull Off  (b) Bend (r) Release (v) Vibrato

E|-------------------------0-2-3-4-|---------------------------------7-9-12-|-
B|---------------------0-2---------|-------------------------5-7-8-9--------|-
G|-----------------0-1-------------|---------------------4-6----------------|-
D|-------------2-4-----------------|-------------2-4-5-6--------------------|-
A|---------2-4---------------------|---------2-4----------------------------|-
E|-0-2-3-4-------------------------|-0-2-3-4--------------------------------|-



E|--------------------------7-9-12-|-------------------------------------12-14-15-16-|-
B|--------------------7-8-9--------|-------------------------------12-14-------------|-
G|----------------6-9--------------|--------------------9-11-12-13-------------------|-
D|------------6-9------------------|---------------9-11------------------------------|-
A|-----7-9-10----------------------|-----7-9-10-11-----------------------------------|-
E|-7-9-----------------------------|-7-9---------------------------------------------|-



E|--------------------------------9-12-|-------------------------------------------------19-21-
B|---------------------------9-12------|-------------------------------------17-19-20-21-------
G|-------------------9-11-12-----------|-------------------------------16-18-------------------
D|--------------9-11-------------------|-------------------14-16-17-18-------------------------
A|------9-10-11------------------------|-------------14-16-------------------------------------
E|-9-12--------------------------------|-12-14-15-16-------------------------------------------
http://www.guitartabcreator.com
Guitar Tab Creator is intended to store guitar tab created through the tool. It currently does not support in-line text editing. Any text you place in here will be lost. If you need to comment on your tab, please use the "Tab Notes" section located below.