D maj pen

(/) Slide Up  (\) Slide Down  (h) Hammer On  (p) Pull Off  (b) Bend (r) Release (v) Vibrato


E|-----------------------2-5-7-10-12-|---------------------5-7-10-|---
B|-------------------3-5-------------|-----------------5-7--------|---
G|---------------2-4-----------------|-------------4-7------------|---
D|---------0-2-4---------------------|---------4-7----------------|---
A|-----0-2---------------------------|-----5-7--------------------|---
E|-0-2-------------------------------|-5-7------------------------|-5-



E|----------------------------10-12-|-----------------------7-10-
B|----------------------10-12-------|------------------7-10------
G|---------------7-9/11-------------|--------------7-9-----------
D|-----------7-9--------------------|----------7-9---------------
A|-----5-7/9------------------------|------7-9-------------------
E|-5-7------------------------------|-7-10-----------------------



E|-------------------------10-12-|-------------------------------------14-17-19-
B|-------------------10-12-------|-------------------------------15-17----------
G|------------7-9-11-------------|-------------------------14-16----------------
D|--------7-9--------------------|----------------12-14-16----------------------
A|----7-9------------------------|----------12-14-------------------------------
E|-10----------------------------|-10-12-14-------------------------------------



E|-------------------------------14-17-|-------------------------------17-19-
B|-------------------------15-17-------|-------------------------17-19-------
G|-------------------14-16-------------|-------------------16-19-------------
D|-------------14-16-------------------|-------------16-19-------------------
A|-------14-17-------------------------|-------17-19-------------------------
E|-14-17-------------------------------|-17-19-------------------------------
http://www.guitartabcreator.com
Guitar Tab Creator is intended to store guitar tab created through the tool. It currently does not support in-line text editing. Any text you place in here will be lost. If you need to comment on your tab, please use the "Tab Notes" section located below.