B min blues

(/) Slide Up  (\) Slide Down  (h) Hammer On  (p) Pull Off  (b) Bend (r) Release (v) Vibrato


E|-----------------------0-1-2-|-------------------------------5-7-|-
B|-------------------0-3-------|-----------------------3-5-6-7-----|-
G|-----------------2-----------|-------------------2-4-------------|-
D|-----------0-2-3-------------|-----------0-2-3-4-----------------|-
A|-------0-2-------------------|-------0-2-------------------------|-
E|-0-1-2-----------------------|-0-1-2-----------------------------|-



E|-------------------------5-7-|---------------------------------10-12-13-14-|-
B|-------------------5-6-7-----|---------------------------10-12-------------|-
G|---------------4-7-----------|-----------------7-9-10-11-------------------|-
D|-----------4-7---------------|-------------7-9-----------------------------|-
A|-----5-7-8-------------------|-----5-7-8-9---------------------------------|-
E|-5-7-------------------------|-5-7-----------------------------------------|-



E|----------------------------7-10-|-------------------------------------12-13-14-|-
B|-----------------------7-10------|-------------------------------12-15----------|-
G|----------------7-9-10-----------|-------------------------11-14----------------|-
D|------------7-9------------------|----------------12-14-15----------------------|-
A|------7-8-9----------------------|----------12-14-------------------------------|-
E|-7-10----------------------------|-12-13-14-------------------------------------|-



E|----------------------------------------------17-19-|----------------------------14-17-19-|-
B|----------------------------------15-17-18-19-------|----------------------15-17----------|-
G|----------------------------14-16-------------------|----------------14-16----------------|-
D|----------------12-14-15-16-------------------------|-------14-15-16----------------------|-
A|----------12-14-------------------------------------|-14-17-------------------------------|-
E|-12-13-14-------------------------------------------|-------------------------------------|-



E|-------------------------------------17-19-|-
B|----------------------------17-18-19-------|-
G|----------------------16-19----------------|-
D|----------------16-19----------------------|-
A|-------17-19-20----------------------------|-
E|-17-19-------------------------------------|-
http://www.guitartabcreator.com
Guitar Tab Creator is intended to store guitar tab created through the tool. It currently does not support in-line text editing. Any text you place in here will be lost. If you need to comment on your tab, please use the "Tab Notes" section located below.