Nice Chord Riff

(/) Slide Up  (\) Slide Down  (h) Hammer On  (p) Pull Off  (b) Bend (r) Release (v) Vibrato


E|--------------------------------|--------------------------------|
B|--------------------------------|--------------------------------|
G|--------------------------------|--------------------------------|
D|-4---4-4-4-4-4-4---4-4-4-6---7--|--------------------------------|
A|-2---2-2-2-2-2-2---2-2-2-4---5--|-5---5---5-5-5-5---5-5-5-5---4--|
E|--------------------------------|-3---3---3-3-3-3---3-3-3-3---2--|

E|--------------------------------|--------------------------------|
B|--------------------------------|--------------------------------|
G|--------------------------------|--------------------------------|
D|-7---7-7-7-7-7-7---7-7-7-0-2-4-0|---------------7---7-6-6-4------|
A|-5---5-5-5-5-5-5---5-5-5--------|-7---7---7-7-7-5---5-4-4-2---7--|
E|--------------------------------|-5---5---5-5-5---------------5--|
http://www.guitartabcreator.com
Guitar Tab Creator is intended to store guitar tab created through the tool. It currently does not support in-line text editing. Any text you place in here will be lost. If you need to comment on your tab, please use the "Tab Notes" section located below.