Bulls in the Bronx (solo)

(/) Slide Up  (\) Slide Down  (h) Hammer On  (p) Pull Off  (b) Bend (r) Release (v) Vibrato

E|--------------------------------------------------
B|-----------6-----6---8/9-------9----10-------10---
G|-2-----2-----4-----4-----10------10----11---------
D|---4-----4-----6------------11------------11------
A|-----4--------------------------------------------
E|--------------------------------------------------



E|------------------------------------------------
B|-----------6-----6---8/9-------9----10-------10-
G|-2-----2-----4-----4-----10------10----11-------
D|---4-----4-----6------------11------------11----
A|-----4------------------------------------------
E|------------------------------------------------



E|--------
B|--------
G|--------
D|--------
A|--------
E|--------
http://www.guitartabcreator.com
Guitar Tab Creator is intended to store guitar tab created through the tool. It currently does not support in-line text editing. Any text you place in here will be lost. If you need to comment on your tab, please use the "Tab Notes" section located below.