Vinny's Blues

(/) Slide Up  (\) Slide Down  (h) Hammer On  (p) Pull Off  (b) Bend (r) Release (v) Vibrato
E|---------8----------------|--8/10------------|--8---------------------------------|----------------|-----
B|--8--10-----10b8v-----8v--|--------8h10------|-----10--8--------------------------|----------------|-----
G|-------------------9------|--------------9v--|------------7--5--5--7-----5--------|--7\9--5h7------|-----
D|--------------------------|------------------|------------------------7-----7--7--|------------8v--|-----
A|--------------------------|------------------|------------------------------------|----------------|-----
E|--------------------------|------------------|------------------------------------|----------------|-----



E|------------------|--8--5-----8--5v--|--8--5-------------|--8--10----------------------|--
B|------------------|--------8---------|--------8--5-------|---------8-------------------|--
G|------------------|------------------|--------------7/9--|------------9-------------7--|--
D|-----5-----5--7v--|------------------|-------------------|---------------10\12--10-----|--
A|--7-----7---------|------------------|-------------------|-----------------------------|--
E|------------------|------------------|-------------------|-----------------------------|--



E|--------------------|-------5--------------------------|-----------------8--10b|--
B|--------------------|--8b8-----8--5--------------------|----------8--10--------|--
G|--7b5--7-----5------|----------------8--7--5-----------|--7\9--9---------------|--
D|----------7-----7v--|-------------------------7--5--7--|-----------------------|--
A|--------------------|----------------------------------|-----------------------|--
E|--------------------|----------------------------------|-----------------------|--



E|------------------------------/10--8-----------------|------------------------8------8--8------8--8--8--10b
B|--------------------------------------10p8-----8h10--|--------------------10-----10--------10--------------
G|--------------------------------------------9--------|-----------------------------------------------------
D|-----------------------------------------------------|-----------------------------------------------------
A|-----------------------------------------------------|-----------------------------------------------------
E|-----------------------------------------------------|-----------------------------------------------------



E|--------------------------|---------------------|--------------
B|--8b8--5----------8-------|---------------------|--------------
G|----------7b7--5-----7b7--|--7p5--7v------------|--------------
D|--------------------------|---------------------|--------------
A|--------------------------|-----------5--6--7v--|--------------
E|--------------------------|---------------------|--------------
http://www.guitartabcreator.com
Guitar Tab Creator is intended to store guitar tab created through the tool. It currently does not support in-line text editing. Any text you place in here will be lost. If you need to comment on your tab, please use the "Tab Notes" section located below.