Angry Birds London Philharmonic Guitar cover lead section (unfinshed)

(/) Slide Up  (\) Slide Down  (h) Hammer On  (p) Pull Off  (b) Bend (r) Release (v) Vibrato
E|--------------7--------------7--7--8--7--5--------------
B|--5--7--8--5-----5--7--8--5-----------------8--8--7--5--
G|--------------------------------------------------------
D|--------------------------------------------------------
A|--------------------------------------------------------
E|--------------------------------------------------------



E|--------------7-----5--7-----7--9--10p9--10p9--10--12--10--9--7-----
B|--5--7--8--5-----8--------5-----------------------------------------
G|--------------------------------------------------------------------
D|--------------------------------------------------------------------
A|--------------------------------------------------------------------
E|--------------------------------------------------------------------
http://www.guitartabcreator.com
Guitar Tab Creator is intended to store guitar tab created through the tool. It currently does not support in-line text editing. Any text you place in here will be lost. If you need to comment on your tab, please use the "Tab Notes" section located below.