zias theme first part

(/) Slide Up  (\) Slide Down  (h) Hammer On  (p) Pull Off  (b) Bend (r) Release (v) Vibrato
t: Q Q Q Q Q Q Q Q Q Q Q Q Q Q Q Q Q Q Q Q Q Q Q Q Q Q Q
E|-----------------------------------------------------------------------------------
B|-----------------------------1--1--1-----1-----------------------------1--1--1--1--
G|-----------------------------0--0--0-----0-----------------------------1--1--1--1--
D|-----------1-----------------------------------------1-----------------------------
A|-----1--3-----3--3--1--3-----3--3--3-----3-----1--3-----3--1-----1-----------------
E|--3-----------------------3-----------3-----3-----------------3-----3--1--1--1--1--



E|--------------------------------------------------------------------------------------
B|-----1--1--------------1--1-----1--1--1--1-----1--1--1--1-----1--1-----1--1-----1--1--
G|-----0--0-----4--4-----0--0-----0--0--0--0-----0--0--0--0-----1--1-----1--1-----0--0--
D|--------------3--3--------------------------------------------------------------------
A|-----3--3-----------3--------3-----3--3--3--3--3--3--3--3-----------------------------
E|--1--------3--3--3-----------------------------------------1--------1--------1--------



E|--------------------------------------------------------------------------------------------
B|-----0--0-----1--1--1-----1--1--1--1-----1--1--1--1-----1--1-----1--1-----1--1-----0--0-----
G|-----0--0-----0--0--0-----0--0--0--0-----0--0--0--0-----1--1-----1--1-----0--0-----0--0-----
D|--------------------------------------------------------------------------------------------
A|-----------3--------3--3-----3--3--3--3--3--3--3--3-----------------------------------------
E|--3--------------------------------------------------1--------1--------1--------3-----------



E|--------------------
B|-----1--1-----1--1--
G|-----0--0-----0--0--
D|--------------------
A|--3--------3--------
E|--------------------
http://www.guitartabcreator.com
Guitar Tab Creator is intended to store guitar tab created through the tool. It currently does not support in-line text editing. Any text you place in here will be lost. If you need to comment on your tab, please use the "Tab Notes" section located below.