sleeping my day away middle 8 and solo

(/) Slide Up  (\) Slide Down  (h) Hammer On  (p) Pull Off  (b) Bend (r) Release (v) Vibrato


E|---------------------------------------------
B|---------------------------------------------
G|---------------------------------------------
D|-----4--4------------------------------4-----
A|--2--------7--7--7\5--5--5\4--4--5--7--------
E|---------------------------------------------



E|----------------------------------------
B|----------------------------------------
G|-----4-----4--6--6b6--4-----------------
D|--4-----4----------------7--5-----5-----
A|-------------------------------7-----7--
E|----------------------------------------



E|-----------------------------------------------
B|-----------------------------------------------
G|-----------------------------------------------
D|--------7-------4----------4----------4--4--5--
A|-----5-----5/9-----4b4--2-----4b4--2-----------
E|--7--------------------------------------------



E|----------------------------
B|-------------------7--------
G|----------4-----------6--7--
D|-----4h5-----5--4-----------
A|--2-------------------------
E|----------------------------



E|-------------------------------
B|-------------------------------
G|--------6--7--------6--7--9b9--
D|--4--5--------4--5-------------
A|-------------------------------
E|-------------------------------



E|-----------------6--7-----
B|-----------7--8-----------
G|--9--8--9-----------------
D|--------------------------
A|--------------------------
E|--------------------------



E|---------------------------------------
B|--7---------7--------------------------
G|--7---------7---------7--7--7--7--9b---
D|-----9p7h9-----9p7h9-------------------
A|---------------------------------------
E|---------------------------------------
http://www.guitartabcreator.com
Guitar Tab Creator is intended to store guitar tab created through the tool. It currently does not support in-line text editing. Any text you place in here will be lost. If you need to comment on your tab, please use the "Tab Notes" section located below.