New horror intro version 1

(/) Slide Up  (\) Slide Down  (h) Hammer On  (p) Pull Off  (b) Bend (r) Release (v) Vibrato


E|-------------------------------------------------------------------------------
B|-------------------------------------------------------------------------------
G|------------------------------9-----7------------------------------------------
D|-----7-----9-----10-----9-----------------10-----9--7--6--7--9-----7--6--------
A|--------7-----7------7-----7-----7-----7------7-----------------8--------8--7--
E|--5----------------------------------------------------------------------------



E|--------------------------
B|--------------------------
G|--------------------------
D|--------------------------
A|--8--7--5-----7-----5-----
E|-----------8-----7-----5--
http://www.guitartabcreator.com
Guitar Tab Creator is intended to store guitar tab created through the tool. It currently does not support in-line text editing. Any text you place in here will be lost. If you need to comment on your tab, please use the "Tab Notes" section located below.