2nd solo close out the light.

(/) Slide Up  (\) Slide Down  (h) Hammer On  (p) Pull Off  (b) Bend (r) Release (v) Vibrato

E|--------------------------------------------------------------------------------------
B|-------------7--8/10--8--10b10b10--8--10--8h10p8\7--8--7------------------------------
G|--7h9--7--9-----------------------------------------------9--7-------------7h9--7--9--
D|----------------------------------------------------------------9--7--7h9-------------
A|--------------------------------------------------------------------------------------
E|--------------------------------------------------------------------------------------



E|-------------------------------------------------------------------------------
B|--7h8p7-----7h8p7-----7h8p7-----7h8p7-----8--10--10b10--8--10--8h10p8\7--8--7--
G|---------9---------9---------9---------9---------------------------------------
D|-------------------------------------------------------------------------------
A|-------------------------------------------------------------------------------
E|-------------------------------------------------------------------------------



E|---------------------------
B|---------------------------
G|--9p7--9p7-----------------
D|------------9p7--9p7-------
A|----------------------9v--\
E|---------------------------
http://www.guitartabcreator.com
Guitar Tab Creator is intended to store guitar tab created through the tool. It currently does not support in-line text editing. Any text you place in here will be lost. If you need to comment on your tab, please use the "Tab Notes" section located below.