Shuffle in E

(/) Slide Up  (\) Slide Down  (h) Hammer On  (p) Pull Off  (b) Bend (r) Release (v) Vibrato


E|--7-----------------------------------------7------------------------------------------7----------------
B|-----10--8--10--8--------8-----8--8------------10--8--10--8--------8----------------------10--8--10--8--
G|-------------------9--7-----9--------9-----------------------9--7-----9--9--10------9-------------------
D|----------------------------------------10--------------------------------------10----------------------
A|--------------------------------------------------------------------------------------------------------
E|--------------------------------------------------------------------------------------------------------



E|---------------------------7------------------------------------------------------------7---------
B|--------8---------------------9--8--10--8--------8--------------------8--10--10--8--10-----10--8--
G|--9--7-----9--7----------------------------9--7-----9--9--9--7--9--9------------------------------
D|-----------------9--7-----------------------------------------------------------------------------
A|-----------------------10-------------------------------------------------------------------------
E|--------------------------------------------------------------------------------------------------



E|----------------------7------------------------------------------
B|--10--8------------------10--8--10--8----------------------------
G|---------9---------9-------------------9--7--9--9--9--10------9--
D|------------9--10-----------------------------------------10-----
A|-----------------------------------------------------------------
E|-----------------------------------------------------------------
http://www.guitartabcreator.com
Guitar Tab Creator is intended to store guitar tab created through the tool. It currently does not support in-line text editing. Any text you place in here will be lost. If you need to comment on your tab, please use the "Tab Notes" section located below.