no time blues

(/) Slide Up  (\) Slide Down  (h) Hammer On  (p) Pull Off  (b) Bend (r) Release (v) Vibrato


E|------------------------------------------------------------------10--13------
B|--10--------------11--13------10--------------------------10--13--------------
G|------10------10----------13------10----------10--12--13------------------13--
D|----------12--------------------------10--12----------------------------------
A|------------------------------------------------------------------------------
E|------------------------------------------------------------------------------



E|------------------------------------------------------------------10--13------
B|------------------11--13------10--------------------------10--13--------------
G|--10------10--10----------13------10----------10--12--13------------------12--
D|------12------------------------------10--12----------------------------------
A|------------------------------------------------------------------------------
E|------------------------------------------------------------------------------



E|-----------------------------------------------------------------------------
B|--11------10-------------------------11--10------------------------------10--
G|------13------10--------------9--12----------10------10--10--12------10------
D|------------------12--11--10---------------------12--------------12----------
A|-----------------------------------------------------------------------------
E|-----------------------------------------------------------------------------
http://www.guitartabcreator.com
Guitar Tab Creator is intended to store guitar tab created through the tool. It currently does not support in-line text editing. Any text you place in here will be lost. If you need to comment on your tab, please use the "Tab Notes" section located below.