Any Day in F

(/) Slide Up  (\) Slide Down  (h) Hammer On  (p) Pull Off  (b) Bend (r) Release (v) Vibrato

E|-----------------------------------------------------------------------------------8--7------
B|----------9--9--11--11--9--------------------------9--9--11--11--9-----------------------11--
G|--10--10-------------------10--------------10--10-------------------10----------9------------
D|-------------------------------10--12--10-------------------------------12--13---------------
A|---------------------------------------------------------------------------------------------
E|---------------------------------------------------------------------------------------------



E|---------------------------------------------------------------------
B|--------------11--10--9--9----------9--9--11--11--9------------------
G|----------------------------10--10-------------------10--------------
D|--10--11--12---------------------------------------------10--12--10--
A|---------------------------------------------------------------------
E|---------------------------------------------------------------------
http://www.guitartabcreator.com
Guitar Tab Creator is intended to store guitar tab created through the tool. It currently does not support in-line text editing. Any text you place in here will be lost. If you need to comment on your tab, please use the "Tab Notes" section located below.