Legato Lick

(/) Slide Up  (\) Slide Down  (h) Hammer On  (p) Pull Off  (b) Bend (r) Release (v) Vibrato
E|--------------------------------------------------------------------------------
B|--------------------------------------------------------------------------------
G|--------------------------------------------------------------------------------
D|--------------------------------------------------5--7--9--7--5--4--5--7--5--4--
A|--------------------------3--5--7--5--3--5--7--9--------------------------------
E|--2--3--5--3--2--3--5--7--------------------------------------------------------



E|--------------------------------------------------------------------
B|--------------------------------------------------------------------
G|--------------------------------------------------------------------
D|--------------------------------------------4--5--7--5--4--5--7--9--
A|--7--5--3--7--5--3--2--3--5--3--2--3--5--7--------------------------
E|--------------------------------------------------------------------



E|--------------------------------------------------------------------------
B|--------------------------------------------------------------------------
G|--5--7--9--7--5--4--5--7--5--4--------------------------------------------
D|--------------------------------7--5--4--7--5--4--2--4--5--4--2--4--5--7--
A|--------------------------------------------------------------------------
E|--------------------------------------------------------------------------



E|---------------------------------------------------------
B|--------------------------7--8--10--8--7--5--7--8--7--5--
G|--4--5--7--5--4--5--7--9---------------------------------
D|---------------------------------------------------------
A|---------------------------------------------------------
E|---------------------------------------------------------



E|---------------------------------------------------------------------
B|--------------------------------------------5--7--8--7--5--7--8--10--
G|--7--5--4--7--5--4--2--4--5--4--2--4--5--7---------------------------
D|---------------------------------------------------------------------
A|---------------------------------------------------------------------
E|---------------------------------------------------------------------



E|--7--8--10--8--7--8--10--11--12--
B|---------------------------------
G|---------------------------------
D|---------------------------------
A|---------------------------------
E|---------------------------------
http://www.guitartabcreator.com
Guitar Tab Creator is intended to store guitar tab created through the tool. It currently does not support in-line text editing. Any text you place in here will be lost. If you need to comment on your tab, please use the "Tab Notes" section located below.