Hey

(/) Slide Up  (\) Slide Down  (h) Hammer On  (p) Pull Off  (b) Bend (r) Release (v) Vibrato


E|------------------
B|------------------
G|------11------11--
D|--12--12--12--12--
A|--10--0---10--0---
E|--0-------0-------



E|--0--0-----0--0--0--0--
B|--0--0-----5--8--3--5--
G|--7--0--4--4--0--0--4--
D|--9--9--0--0--7--2--0--
A|--9--9--5--5--8--3--5--
E|--0--7--0--0--0--0--5--
http://www.guitartabcreator.com
Guitar Tab Creator is intended to store guitar tab created through the tool. It currently does not support in-line text editing. Any text you place in here will be lost. If you need to comment on your tab, please use the "Tab Notes" section located below.