The Vile Truth Chorus

(/) Slide Up  (\) Slide Down  (h) Hammer On  (p) Pull Off  (b) Bend (r) Release (v) Vibrato

E|-----------------------------------------------------------------------------------------------
B|-----------------------------------------------------------------------------------------------
G|-----------------------------------------------------------------------------------------------
D|--8-----------------3-------------------------------------------------------------7--10--8--7--
A|-----6--5--6--5--3-----5--3--0--1--3-----------5-----------------10--8--7--8--10---------------
E|--------------------------------------5--5--5-----8--5--7--7--7--------------------------------



E|------------------7/9--------------------9------10--9--7--7--9--10--13--13--13--12--10--12--
B|--------8/10-----------10------------10-----10----------------------------------------------
G|--7------------------------9------9---------------------------------------------------------
D|-----9------------------------10------------------------------------------------------------
A|--------------------------------------------------------------------------------------------
E|--------------------------------------------------------------------------------------------



E|--15p13p12------13------------------------------------
B|------------15------15--13--12h13p12------12----------
G|--------------------------------------14------14--13--
D|------------------------------------------------------
A|------------------------------------------------------
E|------------------------------------------------------



E|----------------------------------------------------------------------------------------
B|----------------------------------------------------------------------------------------
G|----------9--10--9------9--10--12--10--9------9--------------------------------------9--
D|------10------------10--------------------12-----12--10--9----------9--10--9------9-----
A|--12------------------------------------------------------------10------------10--------
E|------------------------------------------------------------12--------------------------



E|------------------------------------------------------------------------------------------------
B|-----------------12--------------------------------------------------------6--------------------
G|--12--------------------------------5--7--5-----------------5--7--5-----5-----8--7--5-----5-----
D|------10--9--10------9\7---------7-----------7--5--------7-----------7-----------------8--------
A|--------------------------10--8--------------------7--8-----------------------------------------
E|------------------------------------------------------------------------------------------------



E|-----------------------------------------------------------
B|--------------------------------5--7--5--------------------
G|-----------------4--5--4-----4-----------7--5--7--5--4-----
D|--8--7--5-----5-----------5-----------------------------6--
A|-----------7-----------------------------------------------
E|-----------------------------------------------------------



E|-------------------------------------------------------------------------------------------
B|------------------------8------------------------------------------------------------------
G|---------------7------------------5-----------------------2--------5-----------------------
D|--7--9--10--9-----9--7-----7\5/7-----7--5--3--0--2--3--2-----3--2-----3--2-----2-----------
A|----------------------------------------------------------------------------3-----3--2-----
E|----------------------------------------------------------------------------------------3--



E|--------------------------------------------------------------------
B|----------------------------------------------3--0--3/5p0-----------
G|--------------2---------2-----2--3/5\3--2--0---------------3--5-----
D|--------2--3-----3/5\3-----3-------------------------------------6--
A|-----3--------------------------------------------------------------
E|--1-----------------------------------------------------------------
http://www.guitartabcreator.com
Guitar Tab Creator is intended to store guitar tab created through the tool. It currently does not support in-line text editing. Any text you place in here will be lost. If you need to comment on your tab, please use the "Tab Notes" section located below.